Song name
# A B C D E F G H I J K L M N O P Q R S T U V W X Y Z

Portugal The Man - Our And In And In And Out tab

Portugal.The Man - Our And In And In And Out (tabbed by: kiskorodi)

it's my second tab, I'm not sure of that it's the right way to play that song, but 
it works for me...hope you like it

REPEAT IT UNTIL THE SONG ENDS :)

E||--2--2--2--2--2--2--2--2-2-|--2--2--2--2--2--2--2--2-2-|
B||--3--3--3--3--3--3--3--3-3-|--0--0--0--0--0--0--0--0-0-|
G||--2--2--2--2--2--2--2--2-2-|--2--2--2--2--2--2--2--2-2-|
D||---------------------------|---------------------------|
A||---------------------------|---------------------------|
E||---------------------------|---------------------------|

 
--7--7--7--7--7--7--7--7-7-|--2-2-2-2-2-2-2-2---2-2-2-2-2-2-2-||
--6--6--6--6--6--6--6--6-6-|--1-1-1-1-1-1-1-1---0-0-0-0-0-0-0-||
--x--x--x--x--x--x--x--x-x-|--2-2-2-2-2-2-2-2---2-2-2-2-2-2-2-||
--7--7--7--7--7--7--7--7-7-|----------------------------------||
---------------------------|----------------------------------||
---------------------------|----------------------------------||
Tap to rate this tab
# A B C D E F G H I J K L M N O P Q R S T U V W X Y Z