Song name
# A B C D E F G H I J K L M N O P Q R S T U V W X Y Z

Portugal The Man - Work All Day tab

Help us improve GuitareTab! Take a short survey!
Please e-mail with comments.
This is my first tab, but i beleive is close to 100% accurate.
Thank you for the views.

Album: The Satanic Satanist
Tuning: Standard E



Intro:

e| ----------------------------|
B| ----------------------------|
G| --------7--9--7-------------|
D| -7--10-----------10--7------|
A| ------------------------10--| 
E| ----------------------------| x 2


Verse:

e| -------8----------8----------8----------8----|
B| -------10---------10---------10---------10---|
G| -------9----------9----------9----------9----|
D| -7~---------7~---------7~---------7~---------|\
A| ---------------------------------------------| \
E| ---------------------------------------------|  \
                                                    \
                                                    / x 2 
e| --------8----------8----------8----------8---|  /
B| --------8----------8----------8----------8---| /
G| --------9----------9----------9----------9---|/
D| -10~--------10~--------10~--------10~--------|
A| ---------------------------------------------|
E| ---------------------------------------------|


Pre-Chorus:

e| -------10---------10---------10---------10---|
B| -------10---------10---------10---------10---|
G| -7~---------7~---------7~---------7~---------|
D| -7~---------7~---------7~---------7~---------|
A| ---------------------------------------------| 
E| ---------------------------------------------|


Chorus:

e| ----8------8--------8------8--------10------10--------8------8------|
B| ----10-----10-------8------8--------10------10--------10-----10-----|
G| ----9------9--------9------9-----7--------7-----------9------9------|
D| -7------7------------------------7--------7--------7------7---------| x 4
A| -----------------10-----10------------------------------------------|
E| --------------------------------------------------------------------|


Solo:

e| ---------------------------------------------|
B| ---------------------------------------------|
G| ---------------------------------------------|
D| ------------------7--10--12--12~12~----------|
A| -----------7--10---------------------10--7---|
E| -8~----10------------------------------------|


e| ---------------------------------------------|
B| ---------------------------------------------|
G| ---------------------------------------------|
D| -10-------------7--------------------7-------|
A| ---------7--10-----10--7------7--10-----10---|
E| -----10-------------------10-----------------| x 2


Outro:

e| -8----------8----------8----------8----|
B| -10---------10---------10---------10---|
G| -9----------9----------9----------9----|
D| -7----------7----------7-----------7---|
A| ---------------------------------------|
E| ---------------------------------------|


Order:
-Intro 
-Verse
-Pre-Chorus
-Chorus
-Intro
-Verse
-Chorus
-Solo
-Chorus
-Outro
Related for Work All Day tab