Guitaretab - guitar tabs
Song name
# A B C D E F G H I J K L M N O P Q R S T U V W X Y Z

Portugal The Man - Lovers In Love tab

Intro(tapping)
E-----------------------------------------------------------------------------|
B-----------------------------------------------------------------------------|
G--120h3h5-------------------------------------------------------------------|
D-----------------------------------------------------------------------(x10--|
A-----------------------------------------------------------------------------|
E-----------------------------------------------------------------------------|

Verse(0:02)
E------3-x--3-x--3-x--3-x-----3-x-3-x--3--3-----------------------------------|
B------3-x--3-x--3-x--3-x-----3-x-3-x--4--3-----------------------------------|
G------3-x--3-x--3-x--3-x-----5-x-5-x--5--5-----------------------------------|(x8)
D------5-x--5-x--5-x--5-x-----3-x-3-x--3--3-----------------------------------|
A-----------------------------------------------------------------------------|
E-----------------------------------------------------------------------------|

(0:27)
E------5h6p5-----------------------------------------------------------------|
B--------------6-8-----------------------------------------------------------|
G----------------------------------------------------------------------------|
D----------------------------------------------------------------------------|
A----------------------------------------------------------------------------|
E----------------------------------------------------------------------------|

Pre-Chorus (0:28)
E------3-----5-----------------------3----------------------------------------|
B------3-----3-----------------------3----------------------------------------|
G------3-----3--------7-5---5~-------3----------------------------------------|
D------5-----5-------------8---------5(mute the strings)----------------------|
A-----------------------------------------------------------------------------|
E-----------------------------------------------------------------------------|

Chorus(0:40)
E---3-3--xx-xx-5-5-xx--xx--3-3-xx-xx----3-3--------------------------------|
B---3-3--xx-xx-6-6-xx--xx--4-4-xx-xx----4-4--------------------------------|
G---3-3--xx-xx-7-7-xx--xx--5-5-xx-xx----5-5--------5b7p3-------------------|
D---5-5--xx-xx-5-5-xx--xx--3-3-xx-xx----3-3-----------------5--------------|(x3)
A--------------------------------------------------------------------------|
E--------------------------------------------------------------------------|

[ Tab from: http://www.guitaretab.com/p/portugal-the-man/192779.html ]
Verse 2(0:59)
He strums this a few times
E----3-----------------------------------------------------------------------|
B----3-----------------------------------------------------------------------|
G----3-----------------------------------------------------------------------|
D----5-----------------------------------------------------------------------|
A----------------------------------------------------------------------------|
E----------------------------------------------------------------------------|

(1:13)
E------3-x--3---3----3------3-x-3-x--3--3-------------------------------------|
B------3-x--3---3----3------3-x-3-x--4--3-------------------------------------|
G------3-x--3---3----3------5-x-5-x--5--5-------------------------------------|(x4)
D------5-x--5-x-5-x-5-x-----3-x-3-x--3--3-------------------------------------|
A-----------------------------------------------------------------------------|
E-----------------------------------------------------------------------------|

Pre-Chorus (1:25)
E------3-----5---------------------------------------------------------------|
B------3-----3---------------------------------------------------------------|
G------3-----3--------7-5---5~-----------------------------------------------|
D------5-----5-------------8-------------------------------------------------|
A----------------------------------------------------------------------------|
E----------------------------------------------------------------------------|

Chorus(1:38)
E---3-3--xx-xx-5-5-xx--xx--3-3-xx-xx----3-3----------------------------------|
B---3-3--xx-xx-6-6-xx--xx--4-4-xx-xx----4-4----------------------------------|
G---3-3--xx-xx-7-7-xx--xx--5-5-xx-xx----5-5--------5b7p3---------------------|
D---5-5--xx-xx-5-5-xx--xx--3-3-xx-xx----3-3-----------------5---------(x5)---|
A----------------------------------------------------------------------------|
E----------------------------------------------------------------------------|

(2:11)
E----3--------3--------------------------------------------------------------|
B----3--------4--------------------------------------------------------------|
G----3--------5--------------------------------------------------------------|
D----5--------3--------------------------------------------------------------|
A----------------------------------------------------------------------------|
E----------------------------------------------------------------------------|


Chorus(2:35)
E---3-3-xx-xx-5-5-xx--xx--3-3-xx-xx----3-3------------------------------------|
B---3-3-xx-xx-6-6-xx--xx--4-4-xx-xx----4-4------------------------------------|
G---3-3-xx-xx-7-7-xx--xx--5-5-xx-xx----5-5--------5b7p3-----------------------|
D---5-5-xx-xx-5-5-xx--xx--3-3-xx-xx----3-3-----------------5------------------|(x5)
A-----------------------------------------------------------------------------|
E-----------------------------------------------------------------------------|

Outro(tapping)(3:08)
E------------------------15-0h3----------------------------------------------|
B----------------------------------------------------------------------------|
G--120h3h5------------------------------------------------------------------|
D----------------------------------------------------------------------------|
A----------------------------------------------------------------------------|
E----------------------------------------------------------------------------|
Related for Lovers In Love tab