Song name
# A B C D E F G H I J K L M N O P Q R S T U V W X Y Z

Portugal The Man - Gold Magic tab

funky song =]

Eb----------------------------------|
Bb----------------------------------|
Gb-------8-5--3-5-------------------|
Db----6-----------6-8------6-8------|
Ab--8------------------6-8----------|
Eb----------------------------------|

Eb----------------------------------|
Bb-------------------------4-6------|
Gb-------8-5--3-5------3-5----------|
Db----6-----------6-8---------------|
Ab--8-------------------------------|
Eb----------------------------------|
Tap to rate this tab
# A B C D E F G H I J K L M N O P Q R S T U V W X Y Z