Song name
# A B C D E F G H I J K L M N O P Q R S T U V W X Y Z

Portugal The Man - Created tab

Created- Portugal. The Man 
Capo 5
All chords relative to capo.

Intro 
       C                            Am
e|------------------------------------------------------------------|
B|---------1---------------1----------------1---------------1-------|
G|-----0-----0---0-----0-----0---0------2-----2---2-----2-----2---2-|  x2
D|---2---2-----2-----2---2-----2------2---2-----2-----2---2-----2---|
A|-3---------------3----------------0---------------0---------------|
E|------------------------------------------------------------------|

Chorus

       C                            Am
e|------------------------------------------------------------------|
B|---------1---------------1----------------1---------------1-------|
G|-----0-----0---0-----0-----0---0------2-----2---2-----2-----2---2-| x2
D|---2---2-----2-----2---2-----2------2---2-----2-----2---2-----2---|
A|-3---------------3----------------0---------------0---------------|
E|------------------------------------------------------------------|
   I don't know how we're           created, but I know that 
   I know we all                    die, know we all die

Verse

      F                F             
e|---------1----------------1----------|
B|-----1-----1---1------1-----1---1----|
G|---2---2-----2------2---2-----2------|
D|-3----------------3------------------|  x2
A|-------------------------------------|
E|-------------------------------------|
   Go pick up..    Build a roof
   I'll pick up..  Build one too

      C               F            A?        
e|-------------------------------------5----------------------------|
B|--------------------1------------5-----5---5----------------------|
G|-----0------------2---1--------5---5-----5------------------------| x2
D|---2---2--------3------------7------------------------------------|
A|-3----------------------------------------------------------------|
E|------------------------------------------------------------------|
     I just         do as           I do
     Yeah I         do as           I please, and it's 

       F                    F        
e|---------3----------------1----------------------------------------|
B|-----3-----3---3------1-----1---1----------------------------------|
G|---4---4-----4------2---2-----2------------------------------------|
D|-5----------------3------------------------------------------------|
A|-------------------------------------------------------------------|
E|-------------------------------------------------------------------|
   All               I can do--------

       C                            Am
e|------------------------------------------------------------------|
B|---------1---------------1----------------1---------------1-------|
G|-----0-----0---0-----0-----0---0------2-----2---2-----2-----2---2-|  x2
D|---2---2-----2-----2---2-----2------2---2-----2-----2---2-----2---|
A|-3---------------3----------------0---------------0---------------|
E|------------------------------------------------------------------|

Chorus

       C                            Am
e|------------------------------------------------------------------|
B|---------1---------------1----------------1---------------1-------|
G|-----0-----0---0-----0-----0---0------2-----2---2-----2-----2---2-| x2
D|---2---2-----2-----2---2-----2------2---2-----2-----2---2-----2---|
A|-3---------------3----------------0---------------0---------------|
E|------------------------------------------------------------------|
   I don't know how we're           created, but I know that 
   I know we all                    die, know we all die


Verse

      F                F                               
e|---------1----------------1----------|
B|-----1-----1---1------1-----1---1----|
G|---2---2-----2------2---2-----2------|
D|-3----------------3------------------|  x2
A|-------------------------------------|
E|-------------------------------------|
   Listen to...    passing through
   Help out all... helped you too

     C                F            A?        
e|-------------------------------------5----------------------------|
B|--------------------1------------5-----5---5----------------------|
G|-----0------------2---1--------5---5-----5------------------------| x2
D|---2---2--------3------------7------------------------------------|
A|-3----------------------------------------------------------------|
E|------------------------------------------------------------------|
   You just        do as       you do
   Yeah you        do as       you please, and it's 

       F                    F        
e|---------3----------------1----------------------------------------|
B|-----3-----3---3------1-----1---1----------------------------------|
G|---4---4-----4------2---2-----2------------------------------------|
D|-5----------------3------------------------------------------------|
A|-------------------------------------------------------------------|
E|-------------------------------------------------------------------|
   All               you can do--------

       C                            Am
e|------------------------------------------------------------------|
B|---------1---------------1----------------1---------------1-------|
G|-----0-----0---0-----0-----0---0------2-----2---2-----2-----2---2-|  x2
D|---2---2-----2-----2---2-----2------2---2-----2-----2---2-----2---|
A|-3---------------3----------------0---------------0---------------|
E|------------------------------------------------------------------|

Chorus

       C                            Am
e|------------------------------------------------------------------|
B|---------1---------------1----------------1---------------1-------|
G|-----0-----0---0-----0-----0---0------2-----2---2-----2-----2---2-| x2
D|---2---2-----2-----2---2-----2------2---2-----2-----2---2-----2---|
A|-3---------------3----------------0---------------0---------------|
E|------------------------------------------------------------------|
   I don't know how we're           created, but I know that 
   I know we all                    die, know we all die

Verse

      F                  F           
e|---------1----------------1----------|
B|-----1-----1---1------1-----1---1----|
G|---2---2-----2------2---2-----2------|
D|-3----------------3------------------|  x2
A|-------------------------------------|
E|-------------------------------------|
   Open up your...  Hold on to 
   Everything you.. Owns you too

   C                  F            A?        
e|-------------------------------------5----------------------------|
B|--------------------1------------5-----5---5----------------------|
G|-----0------------2---1--------5---5-----5------------------------| x2
D|---2---2--------3------------7------------------------------------|
A|-3----------------------------------------------------------------|
E|------------------------------------------------------------------|
   And just        let it      all go,
   Cause we        do as       we please, and it's 

       F                    F        
e|---------3----------------1----------------------------------------|
B|-----3-----3---3------1-----1---1----------------------------------|
G|---4---4-----4------2---2-----2------------------------------------|
D|-5----------------3------------------------------------------------|
A|-------------------------------------------------------------------|
E|-------------------------------------------------------------------|
   All               we can do--------

       F                    F        
e|---------3----------------1----------------------------------------|
B|-----3-----3---3------1-----1---1----------------------------------|
G|---4---4-----4------2---2-----2------------------------------------|
D|-5----------------3------------------------------------------------|
A|-------------------------------------------------------------------|
E|-------------------------------------------------------------------|
   It's all          we can do--------

       C                            Am
e|------------------------------------------------------------------|
B|---------1---------------1----------------1---------------1-------|
G|-----0-----0---0-----0-----0---0------2-----2---2-----2-----2---2-|  x2
D|---2---2-----2-----2---2-----2------2---2-----2-----2---2-----2---|
A|-3---------------3----------------0---------------0---------------|
E|------------------------------------------------------------------|

Chorus

       C                            Am
e|------------------------------------------------------------------|
B|---------1---------------1----------------1---------------1-------|
G|-----0-----0---0-----0-----0---0------2-----2---2-----2-----2---2-| x2
D|---2---2-----2-----2---2-----2------2---2-----2-----2---2-----2---|
A|-3---------------3----------------0---------------0---------------|
E|------------------------------------------------------------------|
   I don't know how we're           created, but I know that 
   I know we all                    die, know we all die

Verse

       F                    F          Am
e|---------3----------------1----------0------------------------------|
B|-----3-----3---3------1-----1---1----1------------------------------|
G|---4---4-----4------2---2-----2------2------------------------------|
D|-5----------------3------------------2------------------------------|
A|-------------------------------------X------------------------------|
E|-------------------------------------------------------------------|
    And it's all     we can do--------

Tap to rate this tab
# A B C D E F G H I J K L M N O P Q R S T U V W X Y Z