Song name
# A B C D E F G H I J K L M N O P Q R S T U V W X Y Z

Portugal The Man - Out And In And In And Out tab

-------------------------------------------------------------------------------
			     "Out and In and In and Out" - Portugal. The Man
-------------------------------------------------------------------------------
Tabbed by: Kyle Bryan
Email: kylepianoman@gmail.com


heres the gist of the song... I'll tab out the second guitar (solo) later when I 
have the time but I'm 95% sure this is correct.


Tuning:Standard

Verse

e|-3-3-3-3-3-3-3-33---7-7-7-7-7-7-7-77---------------------------------------|
B|-2-2-2-2-2-2-2-22---7-7-7-7-7-7-7-77--12-12-12-12-12-12-12-12-12-----------|
G|-3-3-3-3-3-3-3-33---5-5-5-5-5-5-5-55--10-10-10-10-10-10-10-10-10-----------|
D|-0-0-0-0-0-0-0-00---7-7-7-7-7-7-7-77--12-12-12-12-12-12-12-12-12-----------|
A|--------------------0-0-0-0-0-0-0-00---0--0--0--0--0--0--0--0--0-----------|
E|--------------------5-5-5-5-5-5-5-55--10-10-10-10-10-10-10-10-10-----------|

e|---------------------------------------------------------------------------|
B|-x-7-7-7-7-7-7-7-7/9-9-9-9-9-9-9-------------------------------------------|
G|-x-5-5-5-5-5-5-5-5/7-7-7-7-7-7-7-------------------------------------------|
D|-x-7-7-7-7-7-7-7-7/9-9-9-9-9-9-9-------------------------------------------|
A|---0-0-0-0-0-0-0-0-0-0-0-0-0-0-0-------------------------------------------|
E|---5-5-5-5-5-5-5-5---------------------------------------------------------|


************************************

| /   slide up
| \   slide down
| h   hammer-on
| p   pull-off
| ~   vibrato
| +   harmonic
| x   Mute note
| b   Bend
| pb  Pre-bend
| br  Bend release
| pbr Pre-bend release
| brb Bend release bend

************************************
Tap to rate this tab
# A B C D E F G H I J K L M N O P Q R S T U V W X Y Z