Portugal The Man - The Sun Acoustic tab

From the acoustic version on The Majestic Majesty. This is only the 
licks from the song, for the full chords go to: http://tabs.ultimate-
guitar.com/p/portugal_the_man/the_sun_crd.htm


     First two fills       Really faint at :46    
e|-----------------------|---------------------|----------------------| 
B|-----------------------|---------------------|----------------------| 
G|--12-12-12-12b-10-10---|--------10-----------|----------------------| 
D|-----------------------|--10h12--------------|----------------------| 
A|-----------------------|---------------------|----------------------| 
E|-----------------------|---------------------|----------------------|
			    Maybe x2? 

Starting at 1:09:  
e|--------------------------------------------------------------------| 
B|--------------------------------------------------------------------| 
G|--10-9-7----7-------------------------------------------------------| 
D|---------10---10-7----7----------------------3-5-5b-3-5-5b-3-5-5b---| 
A|-------------------10---10-8-10-10b-8-5--3h5------------------------|
E|--------------------------------------------------------------------|

e|--------------------------------------------------------------------| 
B|--------------------------------------------------------------------| 
G|--------------------------------------------------------------------| 
D|-3------------------------------------------------------------------| 
A|---5----------------------------------------------------------------| 
E|--------------------------------------------------------------------|

         At 1:20                           At 1:25
e|----------------------|---------------------------------------------
B|----------------------|---------------------------------------------| 
G|-x-x-12-12-12b-12p10--|-12-12-12-12-12-12-12-12-12b-10-12b-10-------| 
D|----------------------|---------------------------------------------| 
A|----------------------|---------------------------------------------| 
E|----------------------|---------------------------------------------|

Really quietly at 1:35
e|---------------|----------------------------------------------------| 
B|---------------|----------------------------------------------------| 
G|--10-9-7----7--|----------------------------------------------------| 
D|---------10----|----------------------------------------------------| 
A|---------------|----------------------------------------------------| 
E|---------------|----------------------------------------------------|
	      X3



Comes in at 1:45:  	
e|------------------------------------|-------------------------------| 
B|------------------------------------|-------------------------------| 
G|--------10h12p10----10-----10----10-|--------10h12p10----10------12-| 
D|--10h12----------12----12-----12----|--10h12----------12----12------| 
A|------------------------------------|-------------------------------| 
E|------------------------------------|-------------------------------|
		               x3    Then
e|--------------------------------------------------------------------| 
B|--------------------------------------------------------------------| 
G|-12-12-12-12-12-12-12-----------------------------------------------| 
D|--------------------------------------------------------------------| 
A|--------------------------------------------------------------------| 
E|--------------------------------------------------------------------|

At 2:21 and 2:27
e|----------------------|---------------------------------------------| 
B|----------------------|---------------------------------------------| 
G|-12-12-12-12-12b-10---|---------------------------------------------| 
D|----------------------|---------------------------------------------| 
A|----------------------|---------------------------------------------| 
E|----------------------|---------------------------------------------|

Starting at 2:42:    		    (Part 1)
e|--------------------------------------------------------------------| 
B|--------------------------------------------------------------------| 
G|--10-9-7----7-------------------------------------------------------| 
D|---------10---10-7----7----------------------3-5-5b-3-5-5b-3-5-5b---| 
A|-------------------10---10-8-10-10b-8-5--3h5------------------------|
E|--------------------------------------------------------------------|
		                (Part 2)
e|-----|--------------------------------------------------------------| 
B|-----|--------------------------------------------------------------| 
G|-----|------7----7----------7---------------------------------------| 
D|-3---|-7-10---10---10-7-5h7---7p5-----------------------------------| 
A|---5-|----------------------------8-10-10b-8---------8-10-10b-8-----| 
E|-----|---------------------------------------10-8-10------------10--|

e|--------------------------------------------------------------------| 
B|--------------------------------------------------------------------| 
G|--------------------------------------------------------------------| 
D|--------------------------------------------------------------------| 
A|---------8-10-------------------------------------------------------| 
E|-10-8-10------------------------------------------------------------|


Then repeat (Part 1) twice. 

It might not be exactly that, but its damn close. They might not play 
the end part of the riffs from 1:09 and 2:42 three times, hard to tell. 
Some people might want to play certain parts at different positions on 
the neck, just depends on your style of play. 

Tap to rate this tab
 
# A B C D E F G H I J K L M N O P Q R S T U V W X Y Z