Song name
# A B C D E F G H I J K L M N O P Q R S T U V W X Y Z

Portugal The Man - Created tab

Capo on 5th frett
INTRO
e|------------------------------------------------------------------|
B|---------6---------------6-----------------6---------------6------|
G|-----5-----5---5-----5-----5---5-------7-----7---7-----7-----7---7|
D|---7---7-----7-----7---7-----7-------7---7-----7-----7---7-----7--|
A|-8---------------8-----------------5---------------5--------------|
E|------------------------------------------------------------------|X2
  I don't know how we're created
  But I know we all die

e|----------------------------------------------------------|
B|-------------11-----------------------11------------------|
G|-------10--------10----10-------10-------10----10---------|
D|----12----12--------12-------12----12-------12------------|
A|-13-----------------------13------------------------------|
E|----------------------------------------------------------|X2
  Go pick up all your tools and build a roof
  I'll pick up all of mine and build one too

e|------------------------------10----------------|
B|-----6---------10-------10-------10----10-------|
G|-------5-------------10----10-------10----------|
D|---7--------11----12----------------------------|
A|-8-------12-------------------------------------|
E|------------------------------------------------|X2
I just do as i do
I just do as i please
e|-------------------|
B|----------11-------|
G|-----10-----10---10|
D|--12---12------12--|
A|13-----------------|
E|-------------------|X2
because thats all i can do

the rest of the song is played the same except for the very last verse, which is the 
same as the intro except it ends with this
e|-----------------------------------------------|
B|------------11------------------11----------6--|
G|------10------10---10------10------10---10-----|
D|---12----12-----12------12----12------12-------|
A|13--------------------13--------------------8--|
E|-----------------------------------------------|
 And thats all we can do

                         |-------------------------------------------------|
                                             Lyrics
                         |-------------------------------------------------|
I don't know how we're created
But I know we all die

Go pick up all your tools and build a roof
I'll pick up all mine and build one too

I just do as I do
Yeah I do what I please
And it's all I can do

I don't know how we're created
But I know we all die

Listen to the cars just passing through
Help out all those friends that helped you too

You just do as you do
Yeah you do as you please
And it's all you can do
It's all you can do

I don't know how we're created
But I know we all die

Open up your arms and hold on to
Everything you own that owns you too

And just let it all go
Because we do as we please
And it's all we can do
It's all we can do

I don't know how we're created
But I know we all die
And it's all we can do
Tap to rate this tab
 
# A B C D E F G H I J K L M N O P Q R S T U V W X Y Z