Song name
# A B C D E F G H I J K L M N O P Q R S T U V W X Y Z

Portugal The Man - All Your Light tab

_____________________________________________________________________________
I dont know how accurate this is but I know its close.
Listen to the song to get it right.
_____________________________________________________________________________

Main Verse Chords (Listen to song)
|-----------------|-----------------|----------------|-----------------|
|-----------------|-----------------|----------------|-----------------|
|--------9--------|-----------------|----------------|--------7--------|
|--------9--------|---------5-------|--------7-------|--------7--------|
|--------7--------|---------5-------|--------7-------|--------5--------|
|-----------------|---------3-------|--------5-------|-----------------|

Chorus
|-----------------|-----------------|----------------|-----------------|
|-----------------|-----------------|----------------|-----------------|
|-----------------|-----------------|--------9-------|-----------------|
|--------5--------|---------7-------|--------9-------|-----------------|
|--------5--------|---------7-------|--------7-------|-----------------|
|--------3--------|---------5-------|----------------|-----------------|

During the break (I guess you could call it the bridge)Strum the 7,9,9 mostly, its 
possible for a chord change, I couldnt tell from the song.
Tap to rate this tab
# A B C D E F G H I J K L M N O P Q R S T U V W X Y Z