Song name
# A B C D E F G H I J K L M N O P Q R S T U V W X Y Z

Portugal The Man - Sleep Forever tab

e|------------------------------------------|-------------------------------------|
B|--12--12p10-----12p10--12p10----12p10-----|-------------------------------------|
G|------------0---------------0----------0--|--------------7/9---9--9-9-9/7 ---7--|
D|------------------------------------------|-------8-----------------------9-----|
A|------------------------------------------|--8h10---10--------------------------|
E|------------------------------------------|-------------------------------------|


e|-----------------------------|
B|-----------------------------|
G|-----------------9---/11-----|  x2
D|----------10h12---------12---|
A|---10h12---------------------|
E|-----------------------------|
Tap to rate this tab
 
# A B C D E F G H I J K L M N O P Q R S T U V W X Y Z