Song name
# A B C D E F G H I J K L M N O P Q R S T U V W X Y Z

Portugal The Man - Mornings tab

E|-------------------------------------------------------------------------|
B|-------------------------------------------------------------------------|
G|-------7-9-9-10-11-12--16b^--14-16p14-----------14-----------------------|
D|--7/9---------------------------------16p14p16----16-14-12-14b^-12-------|
A|--------------------------------------------------------------------14---|
e|-------------------------------------------------------------------------|


E|----------------------------------------------------------|
B|----------------------------------------------------------|
G|----------------------------------------------------------|
D|-12-14b^-12-14-12-----------------------------------------|
A|----------------------------------------------------------|
e|----------------------------------------------------------|

b^ = bend up.
/ = slide up.

first tab so it could be wrong.
Tap to rate this tab
# A B C D E F G H I J K L M N O P Q R S T U V W X Y Z