Song name
# A B C D E F G H I J K L M N O P Q R S T U V W X Y Z

Portugal The Man - Sleep Forever tab

Tab by Boxcar
12/10/11

Tuning: Standard

E |----------------------------------------------------------------------------------|
B |--12-10-12-10----12-10-12----12-10------------------------------------------------|
G |-------------------11-------------11---------11/9-------------------7h9b----------|
D |-------------------------------------------------------------7--------------------|
A |-------------------------------------------------------7/9------9-----------------|
E |----------------------------------------------------------------------------------|


E |----------------------------------------------------------------------------|
B |-------------------------------------5/7-----------------------5/7----------|
G |----------------7---------------9---------7-------------9------------7------|
D |---------7--------------7h9-------------------------7-----------------------|
A |--7h9------9-----7/9------------------------7h9-----------------------------|
E |----------------------------------------------------------------------------|
				OR
E |------------------------------------------------------------------------|
B |--------------------------------5---5/7----------------5--5/7-----------|
G |----------------7-------------------------7---------------------7-------|
D |---------7--------------7h9---------------------7-----------------------|
A |--7h9------9-----7/9-------------------7h9------------------------------|
E |------------------------------------------------------------------------|



E |-----------------------------------------------------------------------------|
B |--12-10-12-10----12-10-12-10----12-10----------------------------------------|
G |-------------------11-----------------11---------11/9---------7h9b-----------|
D |---------------------------------------------------------------7-------------|
A |----------------------------------------------------------7/9----------------|
E |-----------------------------------------------------------------------------|

E |-----------------------------------------------------------------------------|
B |--------7------------------------------5/7----------------------5/7----------|
G |--9-9---9-7---7-----------------9--------7---------------9---------7---------|
D |---------------9------------7h9---------------------7------------------------|
A |----------------------7/9---------------------7/9----------------------------|
E |-----------------------------------------------------------------------------|
				OR
E |-----------------------------------------------------------------------------|
B |--------7-------------------------5-5/7-------------------5-5/7--------------|
G |--9-9---9-7---7-------------------------7------------------------7-----------|
D |---------------9------------7h9---------------------7h9----------------------|
A |----------------------7/9---------------------7h9----------------------------|
E |-----------------------------------------------------------------------------|

Please rate. Leave comments if there are any suggestions.
Tap to rate this tab
# A B C D E F G H I J K L M N O P Q R S T U V W X Y Z