Song name
# A B C D E F G H I J K L M N O P Q R S T U V W X Y Z

Portugal The Man - Do You chords

Portugal. The Man - Do You
The Satanic Satanist (2009)

Always use the chords as structured in the tab to sound better.
Any errors or improvements feel free to comment.

Verse 1:

   E                                            C#m
   Do you, do you understand the people that we are?
e|-7----------------------------------------------4------|
B|-9----------------------------------------------5------|
G|-9----------------------------------------------6------|
D|-9-----------------------------/6--4---2---4----6------|
A|-7--------------------------------------------4-4------|
E|-x----------------------------------------------x------|

                                        E
   And do you believe right from  the   start?
e|---------------------------------------7---------------|
B|---------------------------------------9---------------|
G|---------------------------------------9---------------|
D|-------------------/11----9-11p9-------9---------------|
A|--------------------------------11p9-7-7---------------|
E|---------------------------------------x---------------|

                             C#m
   Do you see that everybody needs?
e|----------------------------4--------------------------|
B|----------------------------5--------------------------|
G|----------------------------6--------------------------|
D|----------------/6-4--2-4---6--------------------------|
A|--------------------------4-4--------------------------|
E|----------------------------x--------------------------|

                                           F#
   Do you feel when you're burning in that hell?
e|-----------------------------------------2-------------|
B|-----------------------------------------2-------------|
G|-----------------------------------------3-------------|
D|-----------------------/11--9--11p9------4-------------|
A|------------------------------------9----4-------------|
E|-----------------------------------------5-------------|

   Yeah, we'll make it here


   (C#m) 
e|-------------------------------------------------------|
B|-------------------------------------------------------|
G|-------------------------------------------------------|
D|--/11--9--11-11--9----9-11--9---9--11--9---------------|
A|-------------------11---------11--------11-------------|
E|-------------------------------------------------------|

e|-------------------------------------------------------|
B|-------------------------------------------------------|
G|-------------------------------------------------------|
D|--/11--9--11-11--9----9-11--9--------------------------|
A|-------------------11---------11-11/-------------------|
E|-------------------------------------------------------|


Chorus:

   E          C#m        G#            E
      Did you find your fear? (Did you find?)
e|-0----------4----------4-------------------------------|
B|-0----------5----------4-------------------------------|
G|-1----------6----------5-------------------------------|
D|-2----------6----------6-------------------------------|
A|-2----------4----------6-------------------------------|
E|-0----------x----------4-------------------------------|

           C#m        G#            E
   Did you find your fear?
           C#m        G#            E
   Did you find your fear? (Did you find?)
           C#m        G#
   Did you find your fear?

Verse 2:

   E                                       C#m
   Do you, do you fear the marching of the lamb?
e|-7-----------------------------------------4-----------|
B|-9-----------------------------------------5-----------|
G|-9-----------------------------------------6-----------|
D|-9-----------------------/6--4----2--4-----6-----------|
A|-7---------------------------------------4-4-----------|
E|-x-----------------------------------------x-----------|
                                         E
   Do you believe there's loyalty  in  man?
e|---------------------------------------7---------------|
B|---------------------------------------9---------------|
G|---------------------------------------9---------------|
D|----------------------/11--9-11p9------9---------------|
A|--------------------------------11p9-7-7---------------|
E|---------------------------------------x---------------|

                                  C#m
   Do you see when  others turn  away?
e|-----------------------------------4-------------------|
B|-----------------------------------5-------------------|
G|-----------------------------------6-------------------|
D|----------------/6--4----2-----4---6-------------------|
A|---------------------------------4-4-------------------|
E|-----------------------------------x-------------------|
                                   F#
   Do you hear it swimming in that head?
e|---------------------------------2---------------------|
B|---------------------------------2---------------------|
G|---------------------------------3---------------------|
D|---------------/11--9--11p9------4---------------------|
A|----------------------------9----4---------------------|
E|---------------------------------5---------------------|

   Yeah, we'll make it here

Chorus:

   E          C#m        G#            E
      Did you find your fear? (Did you find?)
e|-0----------4----------4-------------------------------|
B|-0----------5----------4-------------------------------|
G|-1----------6----------5-------------------------------|
D|-2----------6----------6-------------------------------|
A|-2----------4----------6-------------------------------|
E|-0----------x----------4-------------------------------|

           C#m        G#            E
   Did you find your fear?
           C#m        G#            E
   Did you find your fear? (Did you find?)
           C#m        G#            A
   Did you find your fear?


Bridge:

C#m                        G#
   He came down the from moon
                             E
   And rained down on all of us
                      F#
   Rained down all of us
                    C#m
   And everyone was saved
                    G#
   He fell into the sea
                 E
   Just to swim around
                    F#                C#m
   Just to feel the clouds on the way down
                    G#
   And everyone was saved
                 A
   Averyone was saved
                E
   Everyone was saved 

Chorus:

           C#m        G#            E
   Did you find your fear? (Did you find?)
           C#m        G#            E
   Did you find your fear?
           C#m        G#            E
   Did you find your fear? (Did you find?)
           C#m        G#
   Did you find your fear?

Outro chords:

   A     C     D     F       A
e|-0-----0-----2-----x-------x-----------------------|
B|-2-----1-----3-----1-------5-----------------------|
G|-2-----0-----2-----2-------6-----------------------|
D|-2-----2-----0-----3-------7-----------------------|
A|-0-----3-----x-----x-------x-----------------------|
E|-x-----x-----x-----x-------x-----------------------|
Tap to rate this tab
# A B C D E F G H I J K L M N O P Q R S T U V W X Y Z