Song name
# A B C D E F G H I J K L M N O P Q R S T U V W X Y Z

Portugal The Man - The Sun chords

Highlighted       Show chord diagrams
Portugal. The Man - The Sun (chords)
I'm pretty sure that's how he plays it, but you can play the chords normally.
Any errors or corrections feel free to comment.

           F                  Dm
    If you look real high you just might find 
e|---------x------------------1----------------------|
B|---------1------------------3----------------------|
G|---------2------------------2----------------------|
D|---------3------------------0----------------------|
A|---------x------------------x----------------------|
E|---------x------------------x----------------------|

    Am
    Sitting in the stars glistening, glistening 
e|--0------------------------------------------------|
B|--1------------------------------------------------|
G|--2------------------------------------------------|
D|--2------------------------------------------------|
A|--0------------------------------------------------|
E|--x------------------------------------------------|

    F                      Dm
   Waiting for the band to come 
        Am
   Just waiting for that man to come 
   Dm
   Oh, I wonder...


    F        A             Dm         C  A#
    Slip on down from that sun to climb
e|--x-------x--------------x----------x--x--------------|
B|--1-------5--------------x----------6--4--------------|
G|--2-------6--------------11---------7--5--------------|
D|--3-------7--------------12---------8--6--------------|
A|--x-------x--------------x----------x--x--------------|
E|--x-------x--------------x----------x--x--------------|

    F                A                   Dm   C  A#
   Down to earth and down to things like time 
    F                  Dm              Am
   Because we are all, we are all just lovers 
e|--x------------------1---------------0----------------|
B|--1------------------3---------------1----------------|
G|--2------------------2---------------2----------------|
D|--3------------------0---------------2----------------|
A|--x------------------x---------------0----------------|
E|--x------------------x---------------x----------------|
   F                 Dm                   Am
   Born of earth and light like all these others 

             F                           
   If you're talking to the moon 
       Dm
   The moon might sing about 
   Am                                         
   The universe shouting out I don't need, I don't need 
   F    Dm   Am
   Time... I breathe in time 
   F      Dm           Am
   Where, where are we now?
   F      Dm           Am
   Where, where are we now?

   F        A             Dm         C  A#
   Slip on down from that sun to climb
   F                  A                   Dm   C  A#
   Down to earth and down to things like time 
   F                   Dm              Am
   Because we are all, we are all just lovers 
   F                 Dm                   Am
   Born of earth and light like all these others 

             F                          Dm
   If you're looking for the river just find the mouth 
        Am
   It's grinding like gnashing teeth foaming out, foaming out 
   F                      Dm
   Mixing up that hell to come
        Am
   Just mixing up the hell to come

            F                       Dm
   And it's mixing up to swallow me whole 
    Am
   Fixing up to swallow me whole 
    F                      Dm
   Fixing up to swallow my soul 
    Am
   Fixing up to swallow me whole 

   Dm Am Dm Am Dm Am Dm

   F        A             Dm         C  A#
   Slip on down from that sun to climb
   F                  A                   Dm   C  A#
   Down to earth and down to things like time 
   F                   Dm              Am
   Because we are all, we are all just lovers 
   F                 Dm                   Am
   Born of earth and light like all these others

   F      Dm           Am
   Where, Where are we now?
   F      Dm           Am
   Where, Where are we now?
   F      Dm           Am
   Where, Where are we now?
   F      Dm           Am
   Where, Where are we now?

    F  Bb  F
e|--x--x---x------------------------------------------|
B|--1--6---5------------------------------------------|
G|--2--7---6------------------------------------------|
D|--3--8---7------------------------------------------|
A|--x--x---x------------------------------------------|
E|--x--x---x------------------------------------------|
Tap to rate this tab
# A B C D E F G H I J K L M N O P Q R S T U V W X Y Z