Song name
# A B C D E F G H I J K L M N O P Q R S T U V W X Y Z

Portugal The Man - Mornings tab

Portugal. The Man - Mornings (tab)
I've been watching his live videos and that's how he plays it,
this is the tab of the studio album version though.
Any errors or corrections feel free to comment, by Shocke7@UG


e|-5/7\5--5-----------5-------------10--12------------10------|
B|-5/7\5--5---3---5/7---7-5-----/12--------10---10h12---------|
G|------------------------------------------------------------|
D|------------------------------------------------------------|
A|------------------------------------------------------------|
E|------------------------------------------------------------|

e|-5/7\5--5-----------5---------------------------------------|
B|-5/7\5--5---3---5/7---7-5-----------------------------------|
G|------------------------------------------------------------|
D|------------------------------2h4p2p0-----0---2h4p2--0------|
A|---------------------------------------2---------------2----|
E|------------------------------------------------------------|

e|----------5/7\5--5---5/7\5--5----5/7\5--5----5/7-----5------|
B|----------5/7\5--5---5/7\5--5----5/7\5--5-------7\5-----/12-|
G|------------------------------------------------------------|
D|-2h4p2-0----------------------------------------------------|
A|------------------------------------------------------------|
E|------------------------------------------------------------|

e|--10h12---10-----------10-----------------------------------|
B|-----------------10h12-------12-11-10-9---------------------|
G|------------------------------------------------------------|
D|------------------------------------------------------------|
A|------------------------------------------------------------|
E|------------------------------------------------------------|

G 

  Bm                        G
  Mornings go best with the sunrise
       E                E7
  The sunrise I used to see
                 Bm               G            A
  I'll never see now and if I was waiting we'd build it all up
        G                       E         E7
  We'd look all around until we found, we found

Bm
  The people found the mountain
          E                        E7
  Climbed up from that hole in the ground
                            Bm
  Through that crack in the sky threatened to fall
                     E              E7
  Still, I don't believe, I don't believe
G               E     E7
  We'll be just fine
Bm              G
  We'll be just fine

Solo:

e|------------------------------------------------------------|
B|------------------------------------------------------------|
G|--------------------16b--14-16p14------14-------------------|
D|----/9--10-11-12-----------------14h16------16--------------|
A|------------------------------------------------------------|
E|------------------------------------------------------------|

e|------------------------------------------------------------|
B|------------------------------------------------------------|
G|------------------------------------------------------------|
D|--16-14-12--14b-12-----12-14b-12----12-14--12~~~~-----------|
A|-------------------14------------14-------------------------|
E|------------------------------------------------------------|

  Bm                           G
  The future was born with the sunrise
  E                        E7
  The sunrise spilled into days
                Bm                   G        A
  And even more years passed he rode further, burning up trails
     G                         E        E7
  We looked all around till we found we found

Bm
  The people found the mountain
          E                        E7
  Climbed up from that hole in the ground
                            Bm
  Through that crack in the sky threatened to fall
                     E              E7
  Still, I don't believe, I don't believe
G               E     E7
  We'll be just fine
Bm              G
  We'll be just fine

e|---------------7-5----7-5------7-5-----7-5------------------|
B|--3--3-5--5-7------7------7-3------7-3-----7-3h5p3----------|
G|------------------------------------------------------------|
D|------------------------------------------------------------|
A|------------------------------------------------------------|
E|------------------------------------------------------------|

e|----------------7-5----7-5------7-5-----7-5-----------------|
B|--3--3-5--5-7--7----7------7--3-----7-3-----7-3h5p3---------|
G|------------------------------------------------------------|
D|------------------------------------------------------------|
A|------------------------------------------------------------|
E|------------------------------------------------------------|

Chord chart:

      D+    F#m  F#  Em    E
 e|----2-----x----x----x----x-------------|
 B|----3-----7----7----5----5-------------|
 G|----3-----6----5----4----3-------------|
 D|----0-----7----7----5----5-------------|
 A|----x-----x----x----x----x-------------|
 E|----x-----x----x----x----x-------------|


 D               D+           F#m
  The sun it rose up from the belly of sea
            F#                 Em                             E
  Found his bedding up in those clouds where it hung for years
                   D
  Still I don't believe
                     D+                   F#m                        F#
  While colors rained and poured from the cotton bound pools and the drips
                       Em                  E
  The drips stained us all, painted us all
                   D
  Still I don't believe

               D+
  The people found the mountain
          F#m                      F#
  Climbed up from that hole in the ground
                            Em
  Through the cracks in the sky
                    E               D
  Still I don't believe, I don't believe

              D+
  The people found the mountain
          F#m                      F#
  Climbed up from that hole in the ground
                            Em
  Through the cracks in the sky
                  E               D
  And I don't believe, I don't believe
                    D+                  F#m
  And we'll be just fine, we'll be just fine
                F#              Em
  We'll be just fine, I don't believe
                  E                  D
  No, I don't believe. No, I don't believe.
Tap to rate this tab
# A B C D E F G H I J K L M N O P Q R S T U V W X Y Z