Song name
# A B C D E F G H I J K L M N O P Q R S T U V W X Y Z

Portugal The Man - Sea Of Air tab

-------------------------------------------------------------------------------
                             Sea of Air - Portugal. The Man
-------------------------------------------------------------------------------
Tabbed by:lonewaft
E-mail:lonewaft@gmail.com

Tuning: Half step down

s = slide down or slide up

Rhythm #1 "It's came the day we found a sea of air..."
e|----------------------------------------------------------------------------|
B|----------------------------------------------------------------------------|
G|--8---8----3----9----9----9----9--------------------------------------------|
D|--9---9----4----11---11---11---11-------------------------------------------|
A|----------------------------------------------------------------------------|
E|7---7---s2---s9----9----9----9----------------------------------------------|

Rhythm #2  "When we went back, nothing was there..."
e|---------------------------------------------------------------------------|
B|---------------------------------------------------------------------------|
G|--4---4----3----4---4---4---4----------------------------------------------|
D|--6---6----4----6---6---6---6----------------------------------------------|
A|---------------------------------------------------------------------------|
E|4---4---s2---s0---0---0---0------------------------------------------------|

bit #1
e|---------------------------------------------------------------------------|
B|---------------------------------------------------------------------------|
G|--8---8---9----9----6---6---8---8------------------------------------------|
D|--9---9---11---11---7---7---9---9------------------------------------------|
A|---------------------------------------------------------------------------|
E|7---7---9----9----5---5---7---7--------------------------------------------|
bit #2
e|--------------------------------|
B|--------------------------------|
G|--8---8---8---8---8---8---8---8-|
D|--9---9---9---9---9---9---9---9-|
A|--------------------------------|
E|7---7---7---7---7---7---7---7---|

chorus #1
e|---------------------------------------------------------------------------|
B|---------------------------------------------------------------------------|
G|--4---4----3---3----4---4----8---8-----------------------------------------|
D|--6---6----4---4----6---6----9---9-----------------------------------------| x4
A|---------------------------------------------------------------------------|
E|4---4---s2---2---s0---0---s7---7-------------------------------------------|

e|-------------------------------------------------|
B|-------------------------------------------------|
G|--9----9----9----9----9----9----9----9-----------|
D|--11---11---11---11---11---11---11---11----------|
A|-------------------------------------------------|
E|9----9----9----9----9----9----9----9-------------|

chorus #2
e|-------------------------------------------------------------------------------------|
B|-------------------------------------------------------------------------------------|
G|--4---4----8---8----9----9----9----9-------------------------------------------------|
D|--6---6----9---9----11---11---11---11------------------------------------------------|
A|-------------------------------------------------------------------------------------| x4
E|4---4---s7---7---s9----9----9----9---------------------------------------------------|


Intro: Rhythm #1 x2
verse: Rhythm #1, Rhythm #2    x2
bit #1
bit #2
chorus #1
chrous #2

the rest is self explanatory
Tap to rate this tab
# A B C D E F G H I J K L M N O P Q R S T U V W X Y Z