Song name
# A B C D E F G H I J K L M N O P Q R S T U V W X Y Z

Portugal The Man - Everything You See - Kids Count Hallelujahs tab

-------------------------------------------------------------------------------
        Everything You See (Kids Count Hallelujahs) - Portugal. The Man
-------------------------------------------------------------------------------
Tabbed by: mattydeeds
Tuning: Dropped D (DADGBE)

Chord Fingerings:

   Bm   F#   G    D   DAlt  C#   
e|-2----2----3----5----2-------------------------------------------------|
B|-3----2----3----7----3-------------------------------------------------|
G|-4----3----4----7----2----6--------------------------------------------|
D|-4----4----5----7----0----6--------------------------------------------|
A|-2----4----5----5----0----4--------------------------------------------|
D|------4----5----0----0-------------------------------------------------|

Basic Chord Progressions:

Horn Riff:
Bm F# G D C#

Verses:
G F# Bm A G D A D

Chorus:
D F# Bm A G D F# G

Bridge/Outro:
Bm F# G D C# (A)


Tab:

Intro:
---Horn Riff---

  Bm                   F#             G             D      C#
e|--------------------|-------------|--------------|-------------|
B|-10-10---10---10--7-|----7--------|---------7----|-------7-----|
G|--------------------|--------9----|-9-9---9---7--|---------9---|
D|--------------------|-------------|--------------|-------------|
A|--------------------|-------------|--------------|-------------|
D|--------------------|-------------|--------------|-------------|

  Bm           F#            G              D  C#   
e|------------|-------------|--------------|------|--------------|
B|------------|-------------|--------------|------|--------------|
G|-9-7----9-7-|---9-7-------|------------7-|------|--------------|
D|-----9------|-9------9-7--|-7-7---7--9---|------|-4-4-4-5-5-0--|
A|------------|-------------|--------------|------|-4-4-4-5-5-0--|
D|------------|-------------|--------------|------|-4-4-4-5-5-0--|


---Verse 1---

Everything you see

                   G
Everything you see

       F#                    Bm
Can be measured, weighed, or gauged

              A                                G
Just like the one's who will keep you company

                              D       A
All of the things that you'll ever be

                                      D
All of the things that you'll ever be



---Chorus---

D            F#                Bm    A    G
When all the kids count hallelujahs

                  D
We're seven miles high

                  F#
Climbing up laser beams

                        G       D
That light the electric seas

        F#           Bm              A     G
All the kids are the rubber souls

                  D
The kids are just fine

              F#
Kids are just fine

              G
Kids are just fine


---Repeat Horn Riff---


---Verse 2---                                               

There's nothing you can do

                                    G                          
Nothing to know that you always knew

                 F#              Bm
So will all live on and just celebrate the end

     A                                   G
With all of the things that have come to pass

                             D             A
(All of the things that have come to pass)

                                           D
(All of the things that have come to pass)

Repeat Chorus, Horn Riff


---Bridge---

Bm      F#               G
All the castles they command

             D          C#
They'll come sink their teeth in

Bm          F#                  G
And all the waves are crashing down

           D        C#       A
We'll just sink our toes in

---Repeat Chorus, Horn Riff---

Outro:
Repeats Bridge chords: Bm F# G D C#

Psychedelic Noodling:

e|------------------------------------------------|
B|------------------------------------------------|
G|--7------------7---9-----------9------------9---|
D|-----9---7--9-----------7--9--------7---9-------|
A|------------------------------------------------|
D|------------------------------------------------|

e|------------------------------------------------|
B|-------------------------------10---------------|
G|---11---7---11--9--9--11---11-------------------|
D|------------------------------------------------|
A|------------------------------------------------|
D|------------------------------------------------|

Fuzzy Guitar Outro:

e|------------------------------------------------|
B|------------------------------------------------|
G|------------------------------------------------|
D|------------------------------------------------|
A|2----2b4b2--1--------2b4b2-----5------4---------|
D|-----------------4-5----------------------------|



************************************

| /   slide up
| \   slide down
| h   hammer-on
| p   pull-off
| ~   vibrato
| +   harmonic
| x   Mute note
| b   Bend
| pb  Pre-bend
| br  Bend release
| pbr Pre-bend release
| brb Bend release bend

************************************
Tap to rate this tab
# A B C D E F G H I J K L M N O P Q R S T U V W X Y Z