Song name
# A B C D E F G H I J K L M N O P Q R S T U V W X Y Z

Portugal The Man - Aka M80 The Wolf tab

Artist: 	Portugal. The Man
Song Title: 	AKA M80 the Wolf
Album: 		Waiter: "You Vultures!"
Tabbed By: 	DaseinMind

DISCLAIMER:   This tab was created from my own ear while inspired by the existing  
              tabs by "Calgone" and "beadofbrokenglas". No official references were 
              used.  "AKA M80 the Wolf" is the original work of Portugal. The Man. 
              I did not write this song.
              
NOTE:         I know that the verse is actually more complex than I have it tabbed 
              but I feel that my version is more approachable for a novice and 
              sounds good when played against the actual song.

PS: S.E. Watabashi!

Verse x 6

-----3-----3-----3-----3-----------------------------------|
-------5-----5-----5-----5---------7-----7-----7-----7-----|
---------4-----4-----4-----4---------5-----5-----5-----5---|
--0------------------------------7-----7-----7-----7-----7-|
-----------------------------------------------------------|
-----------------------------------------------------------|

---------------------------------------------3---|
-----5-----5-----5-----5--------------2----------|
-------4-----4-----4-----4--------------0--------|
--5------5-----5-----5-----5-----0h2------2------|
-------------------------------------------------|
-------------------------------------------------|

Chorus x 2

----7----------------------7-----------|
------8-10-7-8-7/10-7--------8-10-7~---|
--9----------------------9-------------|
---------------------------------------|
---------------------------------------|
---------------------------------------|

Verse x 4

Breakdown

Chorus x 4

Breakdown

Alt Verse x 4

-----3-----3-----3-----3-----------------------------------|
-------5-----5-----5-----5---------7-----7-----7-----7-----|
---------4-----4-----4-----4---------5-----5-----5-----5---|
--0------------------------------7-----7-----7-----7-----7-|
-----------------------------------------------------------|
-----------------------------------------------------------|

----------------------------------------------------------|
----5-----5-----5-----5-----------7-----7-----7-----7-----|
------4-----4-----4-----4-----------5-----5-----5-----5---|
--5-----5-----5-----5-----5-----7-----7-----7-----7-----7-|
----------------------------------------------------------|
----------------------------------------------------------|

Solo x 6






Tap to rate this tab
# A B C D E F G H I J K L M N O P Q R S T U V W X Y Z