Guitaretab - guitar tabs
Song name
# A B C D E F G H I J K L M N O P Q R S T U V W X Y Z

Portugal The Man - Marching With 6 tab

this is played pretty much throughout the whole song

e|-55xx55xx55xx55xx55xx55xx55xx55xx-|
B|-55xx55xx55xx55xx55xx55xx55xx55xx-|
G|-55xx55xx55xx55xx55xx55xx55xx55xx-|
D|-77xx77xx77xx77xx77xx77xx77xx77xx-|
A|-00xx00xx00xx00xx66xx66xx66xx66xx-|
E|----------------------------------|

this plays during the "oh, oh, oh" part

|----------|
|----------|
|-5*-4*-3*-|
|----------|
|----------|
|----------|

then this part comes in after a couple of those
[ Tab from: http://www.guitaretab.com/p/portugal-the-man/82002.html ]
|-----------------------------------------------------------|
|--------------1-----3-----5---3----------------3-----5---3-|
|--------4-0-2---2-4---4-5---4------------4-0-2---4-5---4---| x2
|------2--------------------------------2-------------------|
|----3--------------------------------3---------------------|
|0-5------------------------------0-5-----------------------|

and then play the "oh, oh, oh" part right after it

this is after 2 verses and then some noise(you can figure that out yourself)

|-----------------| play that a buncha times and then it changes a bit to
|---------------3-| this
|-2--5------------|
|-2---------2-5---|
|-0-----3-5-------|
|-----------------|

|-----------1-|
|-------------|
|--3----------|
|--------0-3--|
|----1-3------|
|-3-----------|

it pretty much ends with the same stuff as before. you should be able to figure it out. 
or comments- email me at bedofbrokenglass@yahoo.com
-enjoi
Related for Marching With 6 tab
Advertisement will be closed in 10 seconds