Song name
# A B C D E F G H I J K L M N O P Q R S T U V W X Y Z

Portugal The Man - Crystal Magic tab

-------------------------------------------------------------------------------
			     CRYSTAL MAGIC - portugal. the man
-------------------------------------------------------------------------------
Tabbed by: Ian Melchior
Email: exstasi@gmail.com

Tuning: DADGBe


Guitar 1
e|-------------------------------------|
B|-------------------------------------|
G|-7--7--7--7--7--7--7--7--------------|
D|-0--0--0--0--0--0--0--0--------------|
A|-------------------------------------|
D|-------------------------------------|

Guitar 2 (0:09)
e|-------------------------------------|
B|-------------------------------------|
G|-------------------------------------|
D|------------------5------------------|
A|-8---7-5--------------8-7-8---7-5----|
D|---------6------------------------5--|

Guitar 3 (0:11)
e|--13-12-13-15-----13-15-17-----------|
B|-------------------------------------|
G|-------------------------------------|
D|-------------------------------------|
A|-------------------------------------|
D|-------------------------------------|

Guitar 2 (0:28)
e|-------------------------------------|
B|-------------------------------------|
G|-------------------------------------|
D|-------------------------------------|
A|-8---7-5------------5----------------|
D|---------8--------8---7--------------|

e|-------------------------------------|
B|-------------------------------------|
G|-------------------------------------|
D|-------------------------------------|
A|-8---7-5----------8---7-5------------|
D|---------8----------------7----------| x3

e|-------------------------------------|
B|-------------------------------------|
G|-------------------------------------|
D|-------------------------------------|
A|-8---7-5----------8---7-5------------|
D|---------8----------------5---7---0--|
(something like this.)

Guitar 2 (1:22)
e|-------------------------------------|
B|-------------------------------------|
G|-------------------------------------|
D|-------------------------------------|
A|-------------------------------------|
D|-7-5--------------5---7---0----------|

===============================================================================
Tap to rate this tab
 
# A B C D E F G H I J K L M N O P Q R S T U V W X Y Z