Song name
# A B C D E F G H I J K L M N O P Q R S T U V W X Y Z

Portugal The Man - Horse Warming Party tab

-------------------------------------------------------------------------------
			     HORSE WARMING PARTY - portugal. the man
-------------------------------------------------------------------------------
Tabbed by: Ian Melchior
Email: Exstasi@gmail.com

Tuning:Standard? (most of their stuff is in Drop D but I didn't use that string)

**Listen very carefully to the song; some of the parts I tabbed out are tough to
**hear but they exist, I promise.


===========
==Verse 1==
===========

Guitar 1 (0:00)
e|---------------------------------------------------------------------------|
B|------------55-------------------------------------------------------------|
G|---------------------------------------------------------------------------|
D|---------------88--88--77--77----------------------------------------------|
A|-5--55--88-----------------------------------------------------------------|
E|---------------------------------------------------------------------------|

Guitar 2 (0:07)
e|---------------------------------------------------------------------------|
B|---------------------------------------------------------------------------|
G|----7-----7----------------------------------------------------------------|
D|----7-----7-------------7-3/5----------------------------------------------|
A|----5-----5----------------------------------------------------------------|
E|---------------------------------------------------------------------------|

Guitar 2 (0:41)
e|---------------------------------------------------------------------------|
B|---------------------------------------------------------------------------|
G|---------------------------------------------------------------------------|
D|-7-3-----7-3/5---7-3-----7-3/5---------------------------------------------|
A|---------------------------------------------------------------------------|
E|---------------------------------------------------------------------------|


==========
==Chorus==
==========
(0:55) "sharpened tongues..."

Nothing is played until (1:09)
Guitar 1
e|---------------------------------------------------------------------------|
B|---------------------------------------------------------------------------|
G|---------------------------------------------------------------------------|
D|3-3-3-3-5-5-5-5-7-7-7-7-8--8--8--8--10-10-10-10-8--8--8--8--7-7-7-7-5-5-5-5|
A|5-5-5-5-7-7-7-7-8-8-8-8-10-10-10-10-12-12-12-12-10-10-10-10-8-8-8-8-7-7-7-7|
E|---------------------------------------------------------------------------|

									x2
===========
==Verse 2==
===========

e|---------------------------------------------------------------------------|
B|---------------------------------------------------------------------------|
G|---------------------------------------------------------------------------|
D|-7^^^---7^^^---7^^^---3/5---------------------------------------------------|
A|---------------------------------------------------------------------------|
E|---------------------------------------------------------------------------|


=================
==Second Chorus==
=================

is the same as the first.


==========
==Bridge==
==========

Might have to do some 2 handed tapping here.

Guitar 1 (2:23)
e|---------------------------------------------------------------------------|
B|---------------------------------------------------------------------------|
G|---------------------------------------------------------------------------|
D|-8p0h3-7p0h3-5p0h3-7p0h3-----8p0h3-7p0h3-5p0h3-7p0h3-----------------------|
A|---------------------------------------------------------------------------|
E|---------------------------------------------------------------------------|

Guitar 2 (2:25)
e|---------------------------------------------------------------------------|
B|--6-6-6-6-6-----6-6-6----6-6------6-6-6-6-6--------------------------------|
G|--7-7-7-7-7-----7-7-7----7-7------7-7-7-7-7-----this is approximate. You'll|
D|--7-7-7-7-7-----7-7-7----7-7------7-7-7-7-7-------have to listen to it and-|
A|--5-5-5-5-5-----5-5-5----5-5------5-5-5-5-5----------find the rhythm.------|
E|---------------------------------------------------------------------------|

Guitar 3 (2:40)
e|---------------------------------------------------------------------------|
B|---------------------------------------------------------------------------|
G|---------------------------------------------------------------------------|
D|---------------------------------------------------------------------------|
A|--7--8-10-8--10-12-5-----7--8-10-8--10-12-5--------------------------------|
E|---------------------------------------------------------------------------|


===========
==Verse 3==
===========
 
(3:02)

Guitar 1 Plays the Guitar 1 part from the bridge.
Guitar 2 Plays the Guitar 1 part from Verse 1 (its pretty quiet.)

===============================================================================
| ^^ bend
| /  slide up
| \  slide down
| h  hammer-on
| p  pull-off
===============================================================================
Tap to rate this tab
# A B C D E F G H I J K L M N O P Q R S T U V W X Y Z