Song name
# A B C D E F G H I J K L M N O P Q R S T U V W X Y Z

Portugal The Man - Elephants tab

Intro- Conductor stood up and took roll call..
e--------------3~-------3--------|
b-3~--------3--4~-----4----1--3~-|
G-3~------3----5~--5-------2--3~-|
D-5~--5--------------------3--5~-|
A--------------------------------|
E--------------------------------|   x3

Who Built the love?
e-----3~--5~-----|
b-3~--4~--6~--3~-|
G-3~--5~--7~--3~-|
D-5~----------5~-|
A----------------|
E----------------|

Verse- Mayor stood up in high demand..
e--------------------------|
b--------------------------|
G---------5----------------|
D-5-------5-(x14)-3-3-3--5-|
A-5-(x14)-3-------3-3-3--5-|
E-3---------------1-1-1--3-|

Sorry I don't know the lead guitar, but these are the main chords.

Pre-chorus- Are you in today?
e-----------------------|
b-----------------------|
G-----------------------|
D----5-----5----5----5--|
A---5-5---5-5--5-5--5-5-|
E-3-----3-----3----3----|

Chorus - Will there be a better place?
e-------------------------------|
b-------------------------------|
G---------5------7--------------|
D-5-------5-(x7)-7-(x7)-5-------|
A-5-(X14)-3------5------5-(x14)-|
E-3---------------------3-------|

Interlude-
e-----------------|
b-----------------|
G-----------------|
D-----------------|
A-----------------|
E-333033303330333-
John just pretty much variates around the G here.
If anyone wants to send me the lead guitar, it would be muchly appreciated.

Outro- Pears and peaches..
e-------------------------------------|
b-------------------------------------|
G------------------3------------3-----|
D--------------3-5---3-5----3-5---3-5-|
A----/10--3--5------------5-----------|
E-3-----------------------------------|

^ This is for bass, but sounds pretty great on guitar too.

End on
E-3~

Sorry that there's stuff missing, but everything you see here is correct.
If you want to add stuff, feel free to leave a comment.
Tap to rate this tab
 
# A B C D E F G H I J K L M N O P Q R S T U V W X Y Z