Song name
# A B C D E F G H I J K L M N O P Q R S T U V W X Y Z

Portugal The Man - Church Mouth tab

Artist: Portugal. The Man
Album: Church Mouth
Song: Church Mouth

----0----------------------------|
----1----------------------------|
----2----------------0h2---------|
----2-----------0h2--------------|
-0--0--3b--0-0-------------------|
---------------------------------|

--5--5-5--5-5---4--4-4--4-4---3--3-3--3-3---5--5-5--5-5---1--1-1--1-1---0--0-0--0-0---------|
--5--5-5--5-5---4--4-4--4-4---3--3-3--3-3---5--5-5--5-5---1--1-1--1-1---0--0-0--0-0---------|
--5--5-5--5-5---5--5-5--5-5---4--4-4--4-4---5--5-5--5-5---2--2-2--2-2---1--1-1--1-1---------|
--7--7-7--7-7---6--6-6--6-6---5--5-5--5-5---4--4-4--4-4---3--3-3--3-3---2--2-2--2-2---------|
--X--X-X--X-X---X--X-X--X-X---X--X-X--X-X-----------------X--X-X--X-X---2--2-2--2-2---------|
--5--5-5--5-5---4--4-4--4-4---3--3-3--3-3-----------------1--1-1--1-1---0--0-0--0-0---------|
"We met the man in the deep deep south
with the gritty smile and the dirty old church mouth"

Strum throughout
-0--------------------|
-1--------------------|
-2--------------------|
-2--------------------|
-0--------------------|
----------------------|
"papers, read and weigh down the stands..."


--5--5-5--5-5---4--4-4--4-4---3--3-3--3-3---5--5-5--5-5---1--1-1--1-1---0--0-0--0-0---------|
--5--5-5--5-5---4--4-4--4-4---3--3-3--3-3---5--5-5--5-5---1--1-1--1-1---0--0-0--0-0---------|
--5--5-5--5-5---5--5-5--5-5---4--4-4--4-4---5--5-5--5-5---2--2-2--2-2---1--1-1--1-1---------|
--7--7-7--7-7---6--6-6--6-6---5--5-5--5-5---4--4-4--4-4---3--3-3--3-3---2--2-2--2-2---------|
--X--X-X--X-X---X--X-X--X-X---X--X-X--X-X-----------------X--X-X--X-X---2--2-2--2-2---------|
--5--5-5--5-5---4--4-4--4-4---3--3-3--3-3-----------------1--1-1--1-1---0--0-0--0-0---------|
"march stepped some steps and it spoke some..."


Strum throughout
-1--------------------|
-3--------------------|
-2--------------------|
----------------------|
----------------------|
----------------------|
"fill me up with money gold..."


--5--5---4--4-4---3-3-3---5--5-5--|
--5--5---4--4-4---3-3-3---5--5-5--|
--5--5---5--5-5---4-4-4---5--5-5--|
--7--7---6--6-6---5-5-5---4--4-4--|
--X--X---X--X-X---X-X-X-----------|
--5--5---4--4-4---3-3-3-----------|
"I'll be better when that sleep comes and finds me"


Strum throughout
-1--------------------|
-3--------------------|
-2--------------------|
----------------------|
----------------------|
----------------------|
"my salt was skin of maps made whole gotta..."


--5--5---4--4-4---3-3-3---5--5-5--|
--5--5---4--4-4---3-3-3---5--5-5--|
--5--5---5--5-5---4-4-4---5--5-5--|
--7--7---6--6-6---5-5-5---4--4-4--|
--X--X---X--X-X---X-X-X-----------|
--5--5---4--4-4---3-3-3-----------|
"I'll be better when that sleep comes and finds me"


Strum throughout
-1--------------------|
-3--------------------|
-2--------------------|
----------------------|
----------------------|
----------------------|
"stroll about through these forks and roads..."


Strum throughout
------------------0------------|
------------------1------------|
------------------2------------|
------------------2------------|
------------------0------------|
-------------------------------|
"Shine on, in this brilliant paced pulse"


--5--5-5--5-5---4--4-4--4-4---3--3-3--3-3---5--5-5--5-5---1--1-1--1-1---0--0-0--0-0---------|
--5--5-5--5-5---4--4-4--4-4---3--3-3--3-3---5--5-5--5-5---1--1-1--1-1---0--0-0--0-0---------|
--5--5-5--5-5---5--5-5--5-5---4--4-4--4-4---5--5-5--5-5---2--2-2--2-2---1--1-1--1-1---------|
--7--7-7--7-7---6--6-6--6-6---5--5-5--5-5---4--4-4--4-4---3--3-3--3-3---2--2-2--2-2---------|
--X--X-X--X-X---X--X-X--X-X---X--X-X--X-X-----------------X--X-X--X-X---2--2-2--2-2---------|
--5--5-5--5-5---4--4-4--4-4---3--3-3--3-3-----------------1--1-1--1-1---0--0-0--0-0---------|
"We met the man in the deep deep south
with the gritty smile and the dirty old church mouth"


Strum throughout
-1--------------------|
-3--------------------|
-2--------------------|
----------------------|
----------------------|
----------------------|
"fill me up with money gold..."


--5--5---4--4-4---3-3-3---5--5-5--|
--5--5---4--4-4---3-3-3---5--5-5--|
--5--5---5--5-5---4-4-4---5--5-5--|
--7--7---6--6-6---5-5-5---4--4-4--|
--X--X---X--X-X---X-X-X-----------|
--5--5---4--4-4---3-3-3-----------|
"I'll be better when that sleep comes and finds me"


Strum throughout
-1--------------------|
-3--------------------|
-2--------------------|
----------------------|
----------------------|
----------------------|
"my salt was skin of maps made whole gotta..."


--5--5---4--4-4---3-3-3---5--5-5--|
--5--5---4--4-4---3-3-3---5--5-5--|
--5--5---5--5-5---4-4-4---5--5-5--|
--7--7---6--6-6---5-5-5---4--4-4--|
--X--X---X--X-X---X-X-X-----------|
--5--5---4--4-4---3-3-3-----------|
"I'll be better when that sleep comes and finds me"


Strum throughout
-1--------------------|
-3--------------------|
-2--------------------|
----------------------|
----------------------|
----------------------|
"stroll about through these forks and roads..."


-5---5--7---7--8---8--7---7--------|
-----------------------------------|
-----------------------------------|
-7---7--7---7--7---7--7---7--------| x8
-----------------------------------|
-----------------------------------|


--5--5-5--5-5---4--4-4--4-4---3--3-3--3-3---5--5-5--5-5---1--1-1--1-1---0--0-0--0-0---------|
--5--5-5--5-5---4--4-4--4-4---3--3-3--3-3---5--5-5--5-5---1--1-1--1-1---0--0-0--0-0---------|
--5--5-5--5-5---5--5-5--5-5---4--4-4--4-4---5--5-5--5-5---2--2-2--2-2---1--1-1--1-1---------|
--7--7-7--7-7---6--6-6--6-6---5--5-5--5-5---4--4-4--4-4---3--3-3--3-3---2--2-2--2-2---------|
--X--X-X--X-X---X--X-X--X-X---X--X-X--X-X-----------------X--X-X--X-X---2--2-2--2-2---------|
--5--5-5--5-5---4--4-4--4-4---3--3-3--3-3-----------------1--1-1--1-1---0--0-0--0-0---------|
"We met the man in the deep deep south
with the gritty smile and the dirty old church mouth"


Strum throughout
-1--------------------|
-3--------------------|
-2--------------------|
----------------------|
----------------------|
----------------------|
"fill me up with money gold..."


--5--5---4--4-4---3-3-3---5--5-5--|
--5--5---4--4-4---3-3-3---5--5-5--|
--5--5---5--5-5---4-4-4---5--5-5--|
--7--7---6--6-6---5-5-5---4--4-4--| x4
--X--X---X--X-X---X-X-X-----------|
--5--5---4--4-4---3-3-3-----------|
"I'll be better when that sleep comes and finds me"
Tap to rate this tab
# A B C D E F G H I J K L M N O P Q R S T U V W X Y Z