Song name
# A B C D E F G H I J K L M N O P Q R S T U V W X Y Z

Positiva - Rock N Roll Troopers tab

positiva


rock'n'roll troopers


Tabbed by Rudy Guzman


guzman_84@hotmail.com



1 step down

   fdbk
Eb|----------------------------------------------------|
Bb|----------------------------------------------------|
Gb|----------------------------------------------------|
Db|----------------------------------------------------|
Ab|----------------------------------------------------|
Eb|----------------------------------------------------|


   bass line
Eb|-------------------------------------------|
Bb|-------------------------------------------|
Gb|-------------------------------------------|
Db|------6---6-4h6---6------6--6------4-4-6p4-|
Ab|-------------------------------4h6---------|
Eb|-7-4------------4----7p4-------------------|


Eb|--------|
Bb|--------|
Gb|------8-|
Db|------6-|
Ab|-9-6----|
Eb|-7-4----|


Eb|---------------|
Bb|---------------|
Gb|-6-6-6-------8-|
Db|-4-4-4-------6-|
Ab|--------9-6----|
Eb|--------7-4----|

Eb|--------|
Bb|--------|
Gb|------8-|
Db|------6-|
Ab|-9-6----|
Eb|-7-4----|


Eb|---------------|
Bb|---------------|
Gb|-6-6-6-------8-|
Db|-4-4-4-------6-|
Ab|--------9-6----|
Eb|--------7-4----|

   pick slide
Eb|--------------------------------------|
Bb|--------------------------------------|
Gb|--------------------------------6-6-6-|
Db|--------------------------------4-4-4-|
Ab|-x/-----------------------------------|
Eb|-x/-----------------------------------|

                                          x2
Eb|-------------------------------------------|
Bb|-------------------------------------------|
Gb|-------------------------------------------|
Db|------6---6-4h6---6------6--6------4-4-6p4-|
Ab|-9-6---------------------------4h6---------|
Eb|-7-4------------4----7p4-------------------|


   verse
Eb|-------------------------------------------|
Bb|-------------------------------------------|
Gb|------8------------------------------------|
Db|------6---6-4h6---6------6--6------4-4-6p4-|
Ab|-9-6---------------------------4h6---------|
Eb|-7-4------------4----7p4-------------------|


   chorus
                                            x3
Eb|-------------------------------------------|
Bb|-------------------------------------------|
Gb|-------------------------------------------|
Db|-6---6p4----------------9-9-9--11-11-11-11-|
Ab|-4-------6p4--------2---7-7-7--9--9--9--9--|
Eb|-------------6p4p0--0---0-0-0--0--0--0--0--|

Eb|-----------------------------------|
Bb|-----------------------------------|
Gb|-----------------------------------|
Db|-6---6p4----------------9-9--9-9-9-|
Ab|-4-------6p4--------2---7-7--7-7-7-|
Eb|-------------6p4p0--0---0-0--0-0-0-|

                                         x2
Eb|-------------------------------------------|
Bb|-------------------------------------------|
Gb|-------------------------------------------|
Db|------6---6-4h6---6------6--6------4-4-6p4-|
Ab|-9-6---------------------------4h6---------|
Eb|-7-4------------4----7p4-------------------|


   verse
Eb|-------------------------------------------|
Bb|-------------------------------------------|
Gb|------8------------------------------------|
Db|------6---6-4h6---6------6--6------4-4-6p4-|
Ab|-9-6---------------------------4h6---------|
Eb|-7-4------------4----7p4-------------------|


   chorus
                                            x3
Eb|-------------------------------------------|
Bb|-------------------------------------------|
Gb|-------------------------------------------|
Db|-6---6p4----------------9-9-9--11-11-11-11-|
Ab|-4-------6p4--------2---7-7-7--9--9--9--9--|
Eb|-------------6p4p0--0---0-0-0--0--0--0--0--|

Eb|-----------------------------------|
Bb|-----------------------------------|
Gb|-----------------------------------|
Db|-6---6p4----------------9-9--9-9-9-|
Ab|-4-------6p4--------2---7-7--7-7-7-|
Eb|-------------6p4p0--0---0-0--0-0-0-|

   gt1
Eb|------------------------------------|
Bb|-7p4---4-4--------------------------|
Gb|-----6-------6p4---4----------8-7-6-|
Db|-----------------6-----6p4----6-5-4-|
Ab|---------------------------6--------|
Eb|------------------------------------|
   gt2
Eb|----------------------------------------------|
Bb|-12p9----9-9----------------------------------|
Gb|------11--------11p9----9------------13-12-11-|
Db|---------------------11-----11p9-----11-10-9--|
Ab|---------------------------------11-----------|
Eb|----------------------------------------------|

   gt1
Eb|------------------------------------|
Bb|-8p5---5-5--------------------------|
Gb|-----7-------7p5---5----------9-8-7-|
Db|-----------------7-----7p5----7-6-5-|
Ab|---------------------------7--------|
Eb|------------------------------------|
   gt2
Eb|---------------------------------------------------|
Bb|-13p10----10-10------------------------------------|
Gb|-------12---------12p10----10-------------14-13-12-|
Db|------------------------12------12p10-----12-11-10-|
Ab|--------------------------------------12-----------|
Eb|---------------------------------------------------|

   gt1
Eb|-------------------------------------------|
Bb|-8p5---5-5---------------------------------|
Gb|-----7-------7p5---5--7-7b--5--7-7b--9-8-7-|
Db|-----------------7-------------------7-6-5-|
Ab|-------------------------------------------|
Eb|-------------------------------------------|
   gt2
Eb|---------------------------------------------------|
Bb|-13p10----10-10------------------------------------|
Gb|-------12---------12p10----10-------------14-13-12-|
Db|------------------------12------12p10-----12-11-10-|
Ab|--------------------------------------12-----------|
Eb|---------------------------------------------------|

   gt1
Eb|------------------------------------|
Bb|-7p4---4-4--------------------------|
Gb|-----6-------6p4---4----------8-7-6-|
Db|-----------------6-----6p4----6-5-4-|
Ab|---------------------------6--------|
Eb|------------------------------------|
   gt2
Eb|----------------------------------------------|
Bb|-12p9----9-9----------------------------------|
Gb|------11--------11p9----9------------13-12-11-|
Db|---------------------11-----11p9-----11-10-9--|
Ab|---------------------------------11-----------|
Eb|----------------------------------------------|

   gt1
Eb|------------------------------------|
Bb|-7p4---4-4--------------------------|
Gb|-----6-------6p4---4----------------|
Db|-----------------6-----6p4----8-7-6-|
Ab|---------------------------6--6-5-4-|
Eb|------------------------------------|
   gt2
Eb|----------------------------------------------|
Bb|-12p9----9-9----------------------------------|
Gb|------11--------11p9----9---------------------|
Db|---------------------11-----11p9-----13-12-11-|
Ab|---------------------------------11--11-10-9--|
Eb|----------------------------------------------|

                                     x3
Eb|------------------------------------|
Bb|-----------------------4~~--------6-|
Gb|-----------------------4~~--------6-|
Db|---6----6-----6--4h5h6------4h5h6---|
Ab|-4----4----4------------------------|
Eb|------------------------------------|

   solo
Eb|------15-----15-------------------------------------------------------------------------|
Bb|-14bf----14b------14b--12----12-14bfp12----12---------------------------12----12-----12-|
Gb|--------------------------14------------14----14p12----12-14-14b~~--14b----14-----14----|
Db|----------------------------------------------------14----------------------------------|
Ab|----------------------------------------------------------------------------------------|
Eb|----------------------------------------------------------------------------------------|

Eb|----------------------------------12-----15bf--12h15p12----12----------------|
Bb|-------12-------12-------------12----12-----------------15----15p12----------|
Gb|-14-14----14-14----14~~~---14b--------------------------------------14p12~~~-|
Db|-----------------------------------------------------------------------------|
Ab|-----------------------------------------------------------------------------|
Eb|-----------------------------------------------------------------------------|

Eb|-19bf-19b~~~--16h19p16----16-------------------------------------------------------------|
Bb|-----------------------19----19p16-19p16----16-----------------16-19-19b--19-19-19-19-19-|
Gb|-----------------------------------------18----18p16-18p16--18------------18-18-18-18-18-|
Db|-----------------------------------------------------------------------------------------|
Ab|-----------------------------------------------------------------------------------------|
Eb|-----------------------------------------------------------------------------------------|

Eb|-------------------|
Bb|-19b--16----16~~~~-|
Gb|---------18--------|
Db|-------------------|
Ab|-------------------|
Eb|-------------------|


Eb|-----------------------------19---------20p17----20p17-----20bf~--17h20p17----17-|
Bb|-19-19--19-19------------19b----19~~-17-------17--------17-----------------20----|
Gb|-18-18--18-18--18p16-------------------------------------------------------------|
Db|---------------------18----------------------------------------------------------|
Ab|---------------------------------------------------------------------------------|
Eb|---------------------------------------------------------------------------------|

Eb|----------------------------------------------------|
Bb|-20p17-20bf~~~--------------------------------------|
Gb|----------------------------------------------------|
Db|----------------------------------------------------|
Ab|----------------------------------------------------|
Eb|----------------------------------------------------|


   verse
Eb|-------------------------------------------|
Bb|-------------------------------------------|
Gb|------8------------------------------------|
Db|------6---6-4h6---6------6--6------4-4-6p4-|
Ab|-9-6---------------------------4h6---------|
Eb|-7-4------------4----7p4-------------------|


   chorus
                                            x3
Eb|-------------------------------------------|
Bb|-------------------------------------------|
Gb|-------------------------------------------|
Db|-6---6p4----------------9-9-9--11-11-11-11-|
Ab|-4-------6p4--------2---7-7-7--9--9--9--9--|
Eb|-------------6p4p0--0---0-0-0--0--0--0--0--|

Eb|-----------------------------------|
Bb|-----------------------------------|
Gb|-----------------------------------|
Db|-6---6p4----------------9-9--9-9-9-|
Ab|-4-------6p4--------2---7-7--7-7-7-|
Eb|-------------6p4p0--0---0-0--0-0-0-|

    gt2
Eb|-----------------------------------------------------------|
Bb|-----------------------------18-15-------------------------|
Gb|-15~~~~~-17~~~--15-----------------17-15--14(14)h15--15~~--|
Db|--------------------17~~~~~--------------------------------|
Ab|-----------------------------------------------------------|
Eb|-----------------------------------------------------------|

Eb|--------|
Bb|--------|
Gb|------8-|
Db|------6-|
Ab|-9-6----|
Eb|-7-4----|



websites

http://www.myspace.com/positivavibes                   myspace

http://www.facebook.com/pages/POSITIVA/183772025431    facebook


hillo son mex
24/10/10
Tap to rate this tab
 
# A B C D E F G H I J K L M N O P Q R S T U V W X Y Z