Song name
# A B C D E F G H I J K L M N O P Q R S T U V W X Y Z

Posse - 2u chords

-------------------------------------------------------------------------------
                             2U - Posse
-------------------------------------------------------------------------------

Here is just the basic chord progression

Verse:

e|-----3-----5-----2-----3------------|
B|-----3-----5-----2-----3------------|
G|-----4-----6-----3-----4------------|
D|-----5-----7-----4-----5------------|
A|-----5-----7-----4-----5------------|
E|-----3-----5-----2-----3------------|

Chorus:

e|-----3-----7-----|
B|-----3-----7-----|
G|-----4-----8-----|
D|-----5-----9-----|
A|-----5-----9-----|
E|-----3-----7-----|
Tap to rate this tab
# A B C D E F G H I J K L M N O P Q R S T U V W X Y Z