Song name
# A B C D E F G H I J K L M N O P Q R S T U V W X Y Z

Possessed - The Beasts Of The Apocalypse tab

The Beasts Of The Apocalypse
by Possessed
from the album Beyond The Gates 
Version 666 Mar-09
Tabbed by Walter Viadana

Tune guitar to E

This song is really cool but i couldnt find it tabbed
Its easy but the quality of the sound doesent help to much


Riff 1A x4
|--------------------------|
|--------------------------|
|--------------------------|
|------------4-2-----------|
|---4---4-2------4-3-2-----|
|---2------------------4---|

Riff 1B x2
|--------------------------|
|--------------------------|
|--------------------------|
|------------3-1-----------|
|---3---3-1------3-2-1-----|
|---1------------------2---|

Riff 1A x3
|--------------------------|
|--------------------------|
|--------------------------|
|------------4-2-----------|
|---4---4-2------4-3-2-----|
|---2------------------4---|

Riff 1C x1
|--------------------------|
|--------------------------|
|--------------------------|
|------------4-2-----------|
|---4---4-2------4-3-2-4---|
|---2------------------2---|


Riff 2 x4      
|--------------------------------------------------------|
|--------------------------------------------------------|
|--------------------------------------------------------|
|--------------------------------------------------------|
|---/6-66--4--/6-66--4--/6-66--4--/6-66--4-4444-5-5555---|
|---/4-44--2--/4-44--2--/4-44--2--/4-44--2-2222-3-3333---|
     .         .         .         .       ....   ....

Riff 3 x2                    End 1&3     End 2     End 4 
|-------------------------|---------|---------|---------|
|-------------------------|---------|---------|---------|
|-------------------------|---------|---------|---------|
|-------------------------|---------|---------|---------|
|-------4------4------4---|-4-3-4-0-|------5--|---------|
|---1-1-2--1-1-2--1-1-2---|---------|--2-2-3--|-1-1-1-1-|
    . .    . .    . .                  . .      . . . .

Riff 2 x4      
|--------------------------------------------------------|
|--------------------------------------------------------|
|--------------------------------------------------------|
|--------------------------------------------------------|
|---/6-66--4--/6-66--4--/6-66--4--/6-66--4-4444-5-5555---|
|---/4-44--2--/4-44--2--/4-44--2--/4-44--2-2222-3-3333---|
     .         .         .         .       ....   ....

(Under solo)
Riff 4A x4
|---------------------------------------------------------------|
|---------------------------------------------------------------|
|---------------------------------------------------------------|
|------------------------4-2------------------------------------|
|---4-4444-4-4444-5-5555-----4-2--4-4444-4-4444-5-5555-5-5555---|
|---2-2222-2-2222-3-3333----------2-2222-2-2222-3-3333-3-3333---|
      ....   ....   ....            ....   ....   ....   ....

Riff 4B x4
|---------------------------------------------------------------|
|---------------------------------------------------------------|
|---------------------------------------------------------------|
|----------------------------4-2--------------------------------|
|---4-4444-4-4444-5-5555-4-2------4-4444-4-4444-5-5555-5-5555---|
|---2-2222-2-2222-3-3333----------2-2222-2-2222-3-3333-3-3333---|
      ...    ....   ....            ....   ....   ....   ....

Fill
|-------|
|-------|
|-------|
|-------|
|---5---|
|---3---|


And then back to the begining 

Riff 1A x4
|--------------------------|
|--------------------------|
|--------------------------|
|------------4-2-----------|
|---4---4-2------4-3-2-----|
|---2------------------4---|

Riff 1B x2
|--------------------------|
|--------------------------|
|--------------------------|
|------------3-1-----------|
|---3---3-1------3-2-1-----|
|---1------------------2---|

Riff 1A x3
|--------------------------|
|--------------------------|
|--------------------------|
|------------4-2-----------|
|---4---4-2------4-3-2-----|
|---2------------------4---|

Riff 1C x1
|--------------------------|
|--------------------------|
|--------------------------|
|------------4-2-----------|
|---4---4-2------4-3-2-4---|
|---2------------------2---|


Riff 2 x4      
|--------------------------------------------------------|
|--------------------------------------------------------|
|--------------------------------------------------------|
|--------------------------------------------------------|
|---/6-66--4--/6-66--4--/6-66--4--/6-66--4-4444-5-5555---|
|---/4-44--2--/4-44--2--/4-44--2--/4-44--2-2222-3-3333---|
     .         .         .         .       ....   ....


Riff 3 x3                    End 1&3     End 2     End 4 
|-------------------------|---------|---------|---------|
|-------------------------|---------|---------|---------|
|-------------------------|---------|---------|---------|
|-------------------------|---------|---------|---------|
|-------4------4------4---|-4-3-4-0-|------5--|---------|
|---1-1-2--1-1-2--1-1-2---|---------|--2-2-3--|-1-1-1-1-|
    . .    . .    . .                  . .      . . . .

Riff 5
|-----------------------------------------------------------------------|
|-----------------------------------------------------------------------|
|-----------------------------------------------------------------------|
|-----------------------4-3-4-0-----------------------------------------|
|--/6-66--4-4444-5-5555----------/6-66--4-4444-5-5555-6-6666-7-7777-6---|
|--/4-44--2-2222-3-3333----------/4-44--2-2222-3-3333-4-4444-5-5555-4---|
    .       ....   ....           .       ....   ....   ....   ....

Done
I think that is fine but if you see a mistake please fix it in another tab 

Tap to rate this tab
 
# A B C D E F G H I J K L M N O P Q R S T U V W X Y Z