Song name
# A B C D E F G H I J K L M N O P Q R S T U V W X Y Z

Possessed - Burning In Hell tab

Band- Possessed
Song- Burning In Hell

Key
= after note = vibrato
^ after note = heavy vibrato
\ = slide down
/ = slide up
+ = tap
h = hammer
p = pull
n = natural harmonic
s = pinching harmonic (squeal)
* = tremolo pick
t = trill
b = bend
|-3-| = triplet

n number above the tab = play the first part then the first finishing part
			 play the first part a second time and then play the second finishing part
			 etc.

Intro

E --------------------------------------------------------------------|
B --------------------------------------------------------------------|
G -----------------------------------------------------------------8--|
D -0-7-10-8-5-6-5--0-7-10-8-5-6-5--0-7-10-8-5-6-5--0-7-10-8-5-6-5--8--|
A -----------------------------------------------------------------6--|
E --------------------------------------------------------------------|

Riff 1

E -----------------------------------------------------------------------------------------|
B -----------------------------------------------------------------------------------------|
G -8-7-------------------8-7---------------------------------------------------------------|
D -8-7-------------------8-7-------------------8-7-------------------8-7-------------------|
A -6-5-55-55-55-55-55-55-6-5-55-55-55-55-55-55-8-7-------------------8-7-------------------|
E ---------------------------------------------6-5-55-55-55-55-55-55-6-5-55-55-55-55-55-55-|

Riff 1A

E -------------------------------------------------------------------------------------------|
B -------------------------------------------------------------------------------------------|
G -8-7-------------------8-7-----------------------------------------------------------------|
D -8-7-------------------8-7-------------------8----------------------8----------------------|
A -6-5-55-55-55-55-55-55-6-5-55-55-55-55-55-55-8----------------------8----------------------|
E ---------------------------------------------6-22-22-22-22-22-22-22-6-22-22-22-22-22-22-22-|

Riff 2

E ----------------------------------------------------------------------------------------|
B ----------------------------------------------------------------------------------------|
G ----------------------------------------------------------------------------------------|
D -2--------------------2--------------------2--------------------2-----------------------|
A -2--------------------2--------------------2--------------------2-----------------------|
E -0--33-33-33-33-33-33-0--33-33-33-33-33-33-0--11-11-11-11-11-11-0--11-11-11-11-11-11-11-|

Riff 2A

E -------------------------------------------------------------------------|
B -------------------------------------------------------------------------|
G -------------------------------------------------------------------------|
D -2--------------------2--------------------2--------------------3--------|
A -2--------------------2--------------------2--------------------3--------|
E -0--33-33-33-33-33-33-0--33-33-33-33-33-33-0--11-11-11-11-11-11-1--------|
Riff 2B

E -----------------------------------------------------------------------|
B -----------------------------------------------------------------------|
G -----------------------------------------------------------------------|
D -2--------------------2--------------------2-------------------5---6---|
A -2--------------------2--------------------2-------------------5---6---|
E -0--33-33-33-33-33-33-0--33-33-33-33-33-33-0--11-11-11-11-11-0-3---4---|

Riff 3

E --------------------------------------------------------------|
B --------------------------------------------------------------|
G ---------------------7/10--10\5===----------------------------|
D -6-5--5-6-5--5-6-5----------------6-5--5-6-5--5-6-5--6-10--8--|
A -6-5--5-6-5--5-6-5----------------6-5--5-6-5--5-6-5--6-10--8--|
E -4-3--3-4-3--3-4-3----------------4-3--3-4-3--3-4-3--4-8 --6--|

Riff 3A

E -----------------------------------|
B -----------------------------------|
G ---------------------7/10--10\5=---|
D -6-5--5-6-5--5-6-5-----------------|
A -6-5--5-6-5--5-6-5-----------------|
E -4-3--3-4-3--3-4-3-----------------|

Riff 3B

E ---------------------------------------------------------|
B ---------------------------------------------------------|
G ---------------------7/10--10\5===8/12--12\8===----------|
D -6-5--5-6-5--5-6-5-----------------------------5-5-5-5-5-|
A -6-5--5-6-5--5-6-5-----------------------------5-5-5-5-5-|
E -4-3--3-4-3--3-4-3-----------------------------3-3-3-3-3-|

Riff 4

E -------------------------------------------------------------------------------------------|
B -------------------------------------------------------------------------------------------|
G -8-----------------------------------------------------------------------------------------|
D -8--------------------------------------------8--------------------------------------------|
A -6--55-55-55-55-55-55-55-55-55-55-55-55-55-55-8--------------------------------------------|
E ----------------------------------------------6--55-55-55-55-55-55-55-55-55-55-55-55-55-55-|

Riff 4A

E ------------------------------------------------------------------------------|
B ------------------------------------------------------------------------------|
G ------------------------------------------------------------------------------|
D -2--------------------------------------------2-----------------------3-------|
A -2--------------------------------------------2-----------------------3-------|
E -0--33-33-33-33-33-33-33-33-33-33-33-33-33-33-0--11-11-11-11-11-11-11-1-------|

Riff 4B

E -------------------------------------------------------------------------------------------|
B -------------------------------------------------------------------------------------------|
G -8-----------------------------------------------------------------------------------------|
D -8--------------------------------------------8--------------------------------------------|
A -6--55-55-55-55-55-55-55-55-55-55-55-55-55-55-8--------------------------------------------|
E ----------------------------------------------6--22-22-22-22-22-22-22-22-22-22-22-22-22-22-|

Riff 4C

E -------------------------------------------------------------------------------------------|
B -------------------------------------------------------------------------------------------|
G -------------------------------------------------------------------------------------------|
D -2--------------------------------------------2--------------------------------3-3-----6---|
A -2--------------------------------------------2--------------------------------3-3-----6---|
E -0--33-33-33-33-33-33-33-33-33-33-33-33-33-33-0--11-11-11-11-11-11-11-11-11-11-1-1-----4---|

Riff 5

E -------------------------------------------------------------|
B -------------------------------------------------------------|
G -------------------------------------------------------------|
D -3-3-3-3-3-3-3-3-3-3-3-3-4--6--3-3-3-3-3-3-3-3-3-3-3-3-6--4--|
A -3-3-3-3-3-3-3-3-3-3-3-3-4--6--3-3-3-3-3-3-3-3-3-3-3-3-6--4--|
E -1-1-1-1-1-1-1-1-1-1-1-1-2--4--1-1-1-1-1-1-1-1-1-1-1-1-4--2--|

Riff 5A

E -------------------------------------------------------------|
B -------------------------------------------------------------|
G -3-3-3-3-3-3-3-3-3-3-3-3-4--6--3-3-3-3-3-3-3-3-3-3-3-3-6--4--|
D -3-3-3-3-3-3-3-3-3-3-3-3-4--6--3-3-3-3-3-3-3-3-3-3-3-3-6--4--|
A -1-1-1-1-1-1-1-1-1-1-1-1-2--4--1-1-1-1-1-1-1-1-1-1-1-1-4--2--|
E -------------------------------------------------------------|

Order

Intro x 1
Riff 1 x 2
Riff 2 x 1
Riff 1 x 2
Riff 2A x 2
Riff 1A x 1
Riff 2 x 1
Riff 1A x 2
Riff 2B x 1
Riff 3 x 3
Riff 3A x 1
Solo over Riff 4 x 2
Solo over Riff 4A x 1
Solo over Riff 4B x 2
solo over Riff 4C x 1
Riff 5 x 2
Riff 5A x 2
Riff 5 x 2
Riff 5A x 2
Riff 1 x 2
Riff 2 x 1
Riff 1 x 2
Riff 2B x 1
Riff 3 x 2
Riff 3A x 1
Tap to rate this tab
# A B C D E F G H I J K L M N O P Q R S T U V W X Y Z