Song name
# A B C D E F G H I J K L M N O P Q R S T U V W X Y Z

Possessed - Death Metal tab

Band- Possessed
Song- Death Metal

Tuning: Half Step Down (Eb Ab Db Gb Bb Eb)

Album: Seven Churches  Year:1985

Riff 1 x6
e|---------------------------|---------------------------|
B|---------------------------|---------------------------|
G|---------------------------|---------------------------|
D|--------------------7-6-5--|---------------------------|
A|--444444-4444-4444--7-6-5--|--444444-4444-4444--4-3-2--|
E|--22222202222022220-5-4-3--|--22222202222022220-2-1-0--|

Riff 2 x2
e|------------------------------|---------------------------|
B|------------------------------|---------------------------|
G|------------------------------|--------------------9-7-6--|
D|--7/999-7/999-7/999-12-11-10--|--7/999-7/999-7/999-7-5-4--|
A|--5/777-5/777-5/777-10--9--8--|--5/777-5/777-5/777--------|
E|------------------------------|---------------------------|

Repeat Riff 1 x4
Repeat Riff 2 x2

Riff 3A x4
e|-------------------------------------|
B|-------------------------------------|
G|-------------------------------------|
D|---------------5-4-------------------|
A|--444444444444-3-2-444444444444-4-2--|
E|--222222222222-----222222222222-2-0--|

Riff 4 x4
e|--------------------------|
B|--------------------------|
G|--------------------------|
D|--------------------------|
A|--------------------------|
E|--000000000000-3-5~-3-5~--|

Repeat Riff 3A x3

Riff 3B x1
e|---------------------------------------|
B|---------------------------------------|
G|---------------------------------------|
D|---------------5-4---------------------|
A|--444444444444-3-2-444444444444-4-3-2--|
E|--222222222222-----222222222222-2-1-0--|

Riff 5A x4 (under solo)
e|-------------------------|
B|-------------------------|
G|-------------------------|
D|-------------------------|
A|--------------------4-2--|
E|--22222202222022220-2-0--|

Riff 5B x4 (under solo)
e|-------------------------|
B|-------------------------|
G|-------------------------|
D|--------------------5-4--|
A|--------------------3-2--|
E|--22222202222022220------|

Repeat Riff 1 x6
Repeat Riff 2 x2
Repeat Riff 3A x7
Repeat Riff 3B x1
Tap to rate this tab
# A B C D E F G H I J K L M N O P Q R S T U V W X Y Z