Song name
# A B C D E F G H I J K L M N O P Q R S T U V W X Y Z

Possessed - Holy Hell tab

Band- Possessed
Song- Holy Hell

Intro
  Guitar 1 x1
e|-----------------------------------------------|
B|-----------------------------------------------|
G|-----------------------------------------------|
D|--9-8-7-----------8-7-6---------7-6-5----------|
A|--------10-9-8-7--------9-8-7-6-------8-7-6-5--|
E|-----------------------------------------------|

e|------------------------------------------------|
B|------------------------------------------------|
G|------------------------------------------------|
D|--6-5-4---------5-4-3---------4-3-2----------4--|
A|--------7-6-5-4-------6-5-4-3-------5-4-3-2--2--|
E|------------------------------------------------|

  Guitar 2 x1
e|-----|-----|-----|-----|-----|-----|-----|
B|-----|-----|-----|-----|-----|-----|-----|
G|--9--|--8--|--7--|--6--|--5--|--4--|--4--|
D|--9--|--8--|--7--|--6--|--5--|--4--|--4--|
A|--7--|--6--|--5--|--4--|--3--|--2--|--2--|
E|-----|-----|-----|-----|-----|-----|-----|

Riff 1 x12
e|---------------------------|---------------------------|
B|---------------------------|---------------------------|
G|---------------------------|---------------------------|
D|------------555-333-----7--|------------555-333-----3--|
A|--222222222---------222-5--|--222222222---------000-1--|
E|---------------------------|---------------------------|

Riff 2 x4
e|-------------------|
B|-------------------|
G|-------------------|
D|-------------------|
A|--222-----111-000--|
E|------333----------|

Repeat Riff 1 x8
Repeat Riff 2 x4

Riff 3A x4
e|-------------------|
B|-------------------|
G|-------------------|
D|-------------------|
A|--------------555--|
E|--444-333-666------|

Riff 3B x4
e|-------------------|
B|-------------------|
G|-------------------|
D|-------------------|
A|--------------888--|
E|--777-666-999------|

Riff 3C x1
e|-------------------------------------------------------------------|
B|-------------------------------------------------------------------|
G|-------------------------------------------------------------------|
D|--------------444-------------555-------------444-------------333--|
A|----------555-------------666-------------555-------------444------|
E|--888-777---------777-888---------888-777---------777-666----------|

Repeat Riff 3A x4
Repeat Riff 3B x4
Repeat Riff 3C x1
Repeat Riff 3A x4

Fig. 1 x6
e|------------|------------|------------|------------|
B|------------|------------|------------|------------|
G|------------|------------|------------|------------|
D|-------5-4--|-------7-6--|-------4-5--|-------5-4--|
A|--5555-3-2--|--5555-5-4--|--5555-2-3--|--5555-3-2--|
E|--3333------|--3333------|--3333------|--3333------|

Repeat Riff 3A x4
Repeat Riff 3B x4
Repeat Riff 3C x1
Repeat Riff 3A x4
Repeat Riff 3B x4
Repeat Riff 3C x1
Repeat Riff 3A x4

Riff 3D x1
e|-------------------|-------------------|-------------------|-------------------|
B|-------------------|-------------------|-------------------|-------------------|
G|-------------------|-------------------|-------------------|-------------------|
D|-------------------|-------------------|-------------------|-------------------|
A|----------444------|----------333------|----------444------|----------555------|
E|--222-555-----333--|--111-444-----222--|--222-555-----333--|--333-666-----444--|

Riff 4A x8
e|-------------------|
B|-------------------|
G|-------------------|
D|----------356-356--|
A|------3-6----------|
E|--444--------------|

Riff 4B x2
e|-------------------|
B|-------------------|
G|-------------------|
D|----------235-235--|
A|------2-5----------|
E|--333--------------|

Repeat Riff 4A x8
Repeat Riff 4B x2
Repeat Riff 4A x8
Repeat Riff 4B x2
Repeat Riff 4A x8
Repeat Riff 4B x2
Repeat Riff 4A x8

Riff 4C x1
e|-------------------------------------------------------------------|
B|-------------------------------------------------------------------|
G|-------------------------------------------------------------------|
D|----------235-235---------124-124---------235-235---------356-356--|
A|------2-5-------------1-4-------------2-5-------------3-6----------|
E|--333-------------222-------------333-------------444--------------|

Kill the song with this-
e|-------------|
B|-------------|
G|-------------|
D|--------356--|
A|-----36------|
E|--34---------|
Tap to rate this tab
 
# A B C D E F G H I J K L M N O P Q R S T U V W X Y Z