Song name
# A B C D E F G H I J K L M N O P Q R S T U V W X Y Z

Possessed - Satans Curse tab

Band- Possessed
Song- Satans Curse

Key
= after note = vibrato
^ after note = heavy vibrato
\ = slide down
/ = slide up
+ = tap
h = hammer
p = pull
n = natural harmonic
s = pinching harmonic (squeal)
* = tremolo pick
t = trill
b = bend
|-3-| = triplet

n number above the tab = play the first part then the first finishing part
			 play the first part a second time and then play the second finishing part
			 etc.

Riff 1A

E -------------------------------------------------------------|
B -------------------------------------------------------------|
G ----------------------------------------------4--------------|
D -3--------------6--------------5--------------4--------------|
A -3--------------6--------------5--------------2--22-22-22-22-|
E -1--11-11-11-11-4--44-44-44-44-3--33-33-33-33----------------|

Riff 1

E -----------------------------------------------------------------|
B -----------------------------------------------------------------|
G -------------------------------------------------4-4-4-4-4-4-4-4-|
D -3-3-3-3-3-3-3-3-6-6-6-6-6-6-6-6-5-5-5-5-5-5-5-5-4-4-4-4-4-4-4-4-|
A -3-3-3-3-3-3-3-3-6-6-6-6-6-6-6-6-5-5-5-5-5-5-5-5-2-2-2-2-2-2-2-2-|
E -1-1-1-1-1-1-1-1-4-4-4-4-4-4-4-4-3-3-3-3-3-3-3-3-----------------|

Riff 2

E ----------------------------------------------------|
B ----------------------------------------------------|
G -9------8-----9------8-----9------8-----9------8----|
D -9--10--8--9--9--10--8--9--9--10--8--9--9--10--8----|
A -7--10--6--9--7--10--6--9--7--10--6--9--7--10--6----|
E ----8 -----7-----8 -----7-----8 -----7-----8 -------

Riff 3A

E -------------------------------------------------------------------------------------------------|
B -------------------------------------------------------------------------------------------------|
G -------------------------5-5-5-5-5-5-5-5-5-5-5-5-4-4-4-4-4-4-4-4-4-4-4-4-5-5-5-5-5-5-5-5-5-5-5-5-|
D -3-3-3-3-3-3-3-3-3-3-3-3-5-5-5-5-5-5-5-5-5-5-5-5-4-4-4-4-4-4-4-4-4-4-4-4-5-5-5-5-5-5-5-5-5-5-5-5-|
A -3-3-3-3-3-3-3-3-3-3-3-3-3-3-3-3-3-3-3-3-3-3-3-3-2-2-2-2-2-2-2-2-2-2-2-2-3-3-3-3-3-3-3-3-3-3-3-3-|
E -1-1-1-1-1-1-1-1-1-1-1-1-------------------------------------------------------------------------|

Riff 3

E -----------------------------------------------------------------|
B -----------------------------------------------------------------|
G -----------------5-5-5-5-5-5-5-5-4-4-4-4-4-4-4-4-5-5-5-5-5-5-5-5-|
D -3-3-3-3-3-3-3-3-5-5-5-5-5-5-5-5-4-4-4-4-4-4-4-4-5-5-5-5-5-5-5-5-|
A -3-3-3-3-3-3-3-3-3-3-3-3-3-3-3-3-2-2-2-2-2-2-2-2-3-3-3-3-3-3-3-3-|
E -1-1-1-1-1-1-1-1-------------------------------------------------|

Riff 3B

E -----------------------------------------------------------------|
B -----------------------------------------------------------------|
G -----------------5-5-5-5-5-5-5-5-9-9-9-9-9-9-9-9-----------------|
D -3-3-3-3-3-3-3-3-5-5-5-5-5-5-5-5-9-9-9-9-9-9-9-9-8-8-8-8-8-8-8-8-|
A -3-3-3-3-3-3-3-3-3-3-3-3-3-3-3-3-7-7-7-7-7-7-7-7-8-8-8-8-8-8-8-8-|
E -1-1-1-1-1-1-1-1---------------------------------6-6-6-6-6-6-6-6-|

Riff 3C

E -------------------------------------------------------------------|
B -------------------------------------------------------------------|
G -----------------5-5-5-5-5-5-5-5-9-9-9-9-9-9-9-9-------------------|
D -3-3-3-3-3-3-3-3-5-5-5-5-5-5-5-5-9-9-9-9-9-9-9-9-8-8-8-8-8-8-8-8-3-|
A -3-3-3-3-3-3-3-3-3-3-3-3-3-3-3-3-7-7-7-7-7-7-7-7-8-8-8-8-8-8-8-8-3-|
E -1-1-1-1-1-1-1-1---------------------------------6-6-6-6-6-6-6-6-1-|

Order

Riff 1A x 2
Riff 1 x 6
Riff 2 x 1
Riff 1 x 8
Riff 2 x 1
Riff 3A x 6
Solo over Riff 3 x 4
Solo over Riff 3B x 4
Random noise
Solo over Riff 3A x 4
Solo over Riff 2 x 1
Riff 1 x 8
Riff 2 x 1
Riff 3 x 4
Riff 3C x 1
Tap to rate this tab
# A B C D E F G H I J K L M N O P Q R S T U V W X Y Z