Song name
# A B C D E F G H I J K L M N O P Q R S T U V W X Y Z

Possessed - Seven Churches tab

Band- Possessed
Song- Seven Churches

Riff 1

E ----------------------------------------------------|
B ----------------------------------------------------|
G ----------------------------------------------------|
D -------------------------------------------------4--|
A ----4--1-1-4-----4--1-1-4----4--1-1-4-----4------4--|
E -1------------1------------1-----------1-----1-1-2--|

Riff 2

E -------------------------------------|
B -------------------------------------|
G -------------------------------------|
D -------------------------------------|
A -1*-4*-1*--4*-1*--4*---1*--4*-1*--4*-|
E -------------------------------------|

Riff 3

E ---------------------------------|
B ---------------------------------|
G --------5-5--5-4-4--4-3----------|
D -4-4--4-5-5--5-4-4--4-3----------|
A -4-4--4-3-3--3-2-2--2-1--0h1p0---|
E -2-2--2------------------------3-|

Riff 3A

E ---------------------------------------------|
B ---------------------------------------------|
G --------5-5--5-4-4--4-3----------------------|
D -4-4--4-5-5--5-4-4--4-3----------4--4--4--5--|
A -4-4--4-3-3--3-2-2--2-1--0h1p0---4--4--4--5--|
E -2-2--2------------------------3-2--2--2--3--|

Riff 4

E -------------------------------------------------------------------------------------------------------------|
B -------------6*--9*--6*-----------------6*--9*--6*-----------------6*--9*--6*-----------------6*--9*--6*-----|
G -------------------------7*-------------------------7*-------------------------7*-------------------------7*-|
D -6*--7*--9*-----------------6*--7*--9*-----------------6*--7*--9*-----------------6*--7*--9*-----------------|
A -------------------------------------------------------------------------------------------------------------|
E -------------------------------------------------------------------------------------------------------------|

Riff 4A

E -------------------------------------------------------------------------------------------------------------------------|
B ----------------12*--15*--12*---------------------------12*--15*--12*---------------------------12*--15*--12*------------|
G -------------------------------13*-------------------------------------13*-------------------------------------13*-------|
D -12*--13*--15*----------------------15*--12*--13*--15*----------------------15*--12*--13*--15*----------------------15*--|
A -------------------------------------------------------------------------------------------------------------------------|
E -------------------------------------------------------------------------------------------------------------------------|

E ------------------------------------|
B ----------------12*--15*--12*-------|
G -------------------------------13*--|
D -12*--13*--15*----------------------|
A ------------------------------------|
E ------------------------------------|

Riff 4B

E -------------------------------------------------------------------------------------------------------------|
B -------------6*--9*--6*-----------------6*--9*--6*-----------------6*--9*--6*-----------------6*--9*--6*-----|
G -------------------------7*-------------------------7*-------------------------7*-------------------------7*-|
D -6*--7*--9*-----------------6*--7*--9*-----------------6*--7*--9*-----------------6*--7*--9*-----------------|
A -------------------------------------------------------------------------------------------------------------|
E -------------------------------------------------------------------------------------------------------------|

E -----------------------------------------------|
B -------------------------6*--9*--6*------------|
G -------------------------------------7*--------|
D -4--4--4--5--6*--7*--9*------------------6*--4-|
A -4--4--4--5----------------------------------4-|
E -2--2--2--3----------------------------------2-|

Riff 5

E -----------------------------------------------------------------------------------------|
B -----------------------------------------------------------------------------------------|
G -----------------------------------------------------------------------------------------|
D -----------------------------------------------------------------------------------------|
A -------------------1-0-------------------1-0-------------------1-0-------------------1-0-|
E -22-22-22-22-22-22-----22-22-22-22-22-22-----22-22-22-22-22-22-----22-22-22-22-22-22-----|

Riff 5A

E -------------------------------------------------------------------------------------|
B -------------------------------------------------------------------------------------|
G -------------------------------------------------------------------------------------|
D -------------------------------------------------------------------------------3--4--|
A -------------------------------------------------------------------------------3--4--|
E -11-11-11-11-11-11-4-3-11-11-11-11-11-11-4-3-11-11-11-11-11-11-4-3-11-11-11-11-1--2--|

Order

Riff 1 x 4
Riff 2 x 8
Riff 3 x 4
Riff 2 x 8
Riff 3 x 3
Riff 3A x 1
Riff 4 x 1
Riff 4A x 1
Riff 4 x 1
Riff 3 x 4
Solo over Riff 5 x 2
Solo over Riff 5A x 2
Solo over Riff 5 x 2
Solo over Riff 5A x 2
Riff 1 x 4
Riff 2 x 8
Riff 3 x 3
Riff 3A x 1
Riff 4 x 1
Riff 4A x 1
Riff 4B x 1
Tap to rate this tab
# A B C D E F G H I J K L M N O P Q R S T U V W X Y Z