Song name
# A B C D E F G H I J K L M N O P Q R S T U V W X Y Z

Postal Service - Brand New Colony Acoustic tab

ok so this tab isn't mine i'm just writing it 
out for all the people who haven't found it on youtube 
yet so heres the link to the video if u need further help  

capo 5th fret
INTRO

E----------------]G
B---X-3------X-3-]2xS
G---X------0-X---]
D---X--------X---]
A----------------]
E--3-----3-------]

E-----------------]D
B-----X-3-----X-3-]
G-----X-----2-X---]
D--0--X---0---X---]
A-----------------]
E-----------------]

E-----------------]Em
B----X-0------X-0-]
G----X------0-X---]
D----X--------X---]
A-----------------]
E--0------0-------]

E-----------------]C
B----X-1-----X-1--]2xs
G----X-----0-X----]
D----X-------X----]
A--3-----3--------]
E-----------------]

E-----------------]Am
A----X-1-----X-1--]2xs
G----X-----2-X----]
D----X-------X----]
A--0-----0--------]
E-----------------]
VERSE
E----------------]G
B---X-3------X-3-]2xS
G---X------0-X---]
D---X--------X---]
A----------------]
E--3-----3-------]

E-----------------]D
B-----X-3-----X-3-]
G-----X-----2-X---]
D--0--X---0---X---]
A-----------------]
E-----------------]

E-----------------]Em
B----X-0------X-0-]
G----X------0-X---]
D----X--------X---]
A-----------------]
E--0------0-------]

E-----------------]C
B----X-1-----X-1--]2xs
G----X-----0-X----]
D----X-------X----]
A--3-----3--------]
E-----------------]
IT ONLY ENDS ON Am AFTER "DRIFTING OFF TOO SLEEP"

E-----------------]Am
A----X-1-----X-1--]2xs
G----X-----2-X----]
D----X-------X----]
A--0-----0--------]
E-----------------]
starting on
"i want to take you far" to
"under our bare feet" the chord progression is
E-----------------]Em
B----X-0------X-0-]2xs
G----X------0-X---]
D----X--------X---]
A-----------------]
E--0------0-------]

E-----------------]C
B----X-1-----X-1--]2xs
G----X-----0-X----]
D----X-------X----]
A--3-----3--------]
E-----------------]

E----------------]G
B---X-3------X-3-]2xS
G---X------0-X---]
D---X--------X---]
A----------------]
E--3-----3-------]

and when it says "in this brand new colony" it end on

E-----------------]D
B-----X-3-----X-3-]
G-----X-----2-X---]
D--0--X---0---X---]
A-----------------]
E-----------------]

And this is something ben does with his C periodicly

E--------0---------]
B----3-------3---1-]
G------------------]
D------------------]
A--3---3---3---3---]
E------------------]

that should be it any questions ask the guy
 who made the video at the top or message me at
http://www.youtube.com/user/cgalla0307
Tap to rate this tab
# A B C D E F G H I J K L M N O P Q R S T U V W X Y Z