Song name
# A B C D E F G H I J K L M N O P Q R S T U V W X Y Z

Postal Service - This Place Is A Prison tab

-------------------------------------------------------------------------------
	          This Place Is a Prison - The Postal Service
-------------------------------------------------------------------------------
Tabbed by: Tory Collins
Email: Collins_Tory@hotmail.com

Tuning: Standard

  
  VERSE

     This place is a prison      And these people aren't your friends
e|---------------------------------------------------------------------------|
B|-1------------------3--------1-------------------------------3-------------|
G|-0------------------0--------0-------------------------------0-------------|
D|-3------------------5--------3-------------------------------5-------------|
A|-3------------------5--------3-------------------------------5-------------|
E|---------------------------------------------------------------------------|

   And the tumblers are drained and then flooded again and again
e|---------------------------------------------------------------------------|
B|-3--------------------------------------------------------1----------------|
G|-0--------------------------------------------------------0----------------|
D|-5--------------------------------------------------------3----------------|
A|-5--------------------------------------------------------3----------------|
E|---------------------------------------------------------------------------|

  BRIDGE

  I know there's a big world out there like the one i saw on the screen
e|---------------------------------------------------------------------------|
B|-1--------------------3------------------------5----------------5----------|
G|-0--------------------0------------------------0----------------0----------|
D|-3--------------------5------------------------7----------------7----------|
A|-3--------------------5------------------------7----------------7----------|
E|---------------------------------------------------------------------------|

   In my living room late last night It was almost too bright to see
e|---------------------------------------------------------------------------|
B|-1------------------3----------------------5----------8---------1----------|
G|-0------------------0----------------------0----------0---------0----------|
D|-3------------------5----------------------7----------10--------3----------|
A|-3------------------5----------------------7----------10--------3----------|
E|---------------------------------------------------------------------------|

  ENDING

    What does it take     to get a drink in this place?
e|---------------------------------------------------------------------------|
B|--1------------------3-----------------------------------------------------|
G|--0------------------0-----------------------------------------------------|
D|--3------------------5-----------------------------------------------------|
A|--3------------------5-----------------------------------------------------|
E|---------------------------------------------------------------------------|


e|---------------------------------------------------------------------------|
B|---9--10------9------------------------------------------------------------|
G|----------12-----12--10----------------------------------------------------|
D|---------------------------------------------------------------------------|
A|---------------------------------------------------------------------------|
E|---------------------------------------------------------------------------|



| /  slide up
| \  slide down
| h  hammer-on
| p  pull-off
| ~  vibrato
| +  harmonic
| x  Mute note
===============================================================================
Tap to rate this tab
 
# A B C D E F G H I J K L M N O P Q R S T U V W X Y Z