Song name
# A B C D E F G H I J K L M N O P Q R S T U V W X Y Z

Postgirobygget - Engel Ifra Helvete tab

Fant ut av den da jeg skulle spille sangen på skolen, men ikke fant noen tabs til soloen 
nettet :p er nok ikke 100% riktig, men den er close nok.

|--------------------------------------------------------------|
|--------------------------------------------------------------|
|---------10-10-12-12-------10---------------------------------|
|---10-12-------------10-12----12-10-8-10-10/12-10-8-10-10/12--|
|--------------------------------------------------------------|
|--------------------------------------------------------------|

|-----------------------------------------------------------------------|
|-----------------------------------------------------------------------|
|----------------------------------------------10-12-12-----------------|
|---12-------------12-10-12-----------------------------10-12-10/8-10p8-|
|---13-13-11-13-11-------13-13-11-13-13b/13-11--------------------------|
|-----------------------------------------------------------------------|
Tap to rate this tab
# A B C D E F G H I J K L M N O P Q R S T U V W X Y Z