Song name
# A B C D E F G H I J K L M N O P Q R S T U V W X Y Z

Postgirobygget - Sommer P Jorda tab

Help us improve GuitareTab! Take a short survey!
Highlighted       Show chord diagrams
Postgirobygget - Sommer p Jorda

Intro:
       C      C/B      Am              G         G/F#   Em 
e| |----------------|---3-2-0--------|---3------3-----|---0-2-3--------|
B| |---1------1-----|----------------|----0------0----|----------------|
G| |----0------0----|----------------|----------------|----------------|
D| |--2------0------|--2-------------|----------------|----------------|
A| |-3------2-------|-0--------------|--2------2------|--2-------------|
E| |----------------|----------------|-3------2-------|-0--------------|


       C                D
e| |------3---------|----3-2---------|----------------|----------------|
B| |---1----1-1-----|---3----3-3-----|----------------|----------------|
G| |----0----0------|--2------2------|----------------|----------------|
D| |--2-------------|-0--------------|----------------|----------------|
A| |-3--------------|----------------|----------------|----------------|
E| |----------------|----------------|----------------|----------------|


Vers 1:

    C           C/B       Am7  D
Nr sola henger hyt over Langesund
    G        G/F#    Em       C
og hjernen er myk og jorda er rund
    B              B/D#          Em     G
og Wrightegaarden ligger der den alltid l
    C        C/B     Am7      D
og pilsen er kald og sorgene sm
    G       G/F#   Em     B7
nr ken p E18 er gtt i st
    C          C/B       Am7          D        C - G/B - D
og alle gr og banner og ingen kan forst
          C         G
at det er sommer p jorda


Vers 2: Samme som frste

Nr terna gr i spinn over Langesund
og katta er mett og tar seg en blund
og jenta di er gyllenbrun og sommerpen
og bare har p seg solfaktor en
nr rekene er salte og jenta di er st
og trre kontorister har lagt kroppen sin i blt
da er det som p jorda


Refreng:
G         C
Sommer p jorda
D        G
smil overalt
            C             D              Em
himmelen er gjennomsiktig havet bltt og salt
   G          Asus4      Bm             C
og jentene er stere enn markjordbr p str
G         C
sommer p jorda
D            G
livet det er n


Vers 3: Samme som frste

Nr sommernatta kler seg i perlemor
og jenta di gir deg himmel p jord
og klokka di er full av vann og gr i st
og jobben var fr og livet er n
nr krabbene er fulle og hjernen din er tom
og sola varmer sjela di og havet roper kom
da er det sommer p jorda

Sommer p jorda...
Related for Sommer P Jorda tab