Song name
# A B C D E F G H I J K L M N O P Q R S T U V W X Y Z

Postmortem Promises - Impalement Of The Martyr tab

-------------------------------------------------------------------------------
			                Impalement Of The Martyr - Postmortem Promises
-------------------------------------------------------------------------------
Tabbed by: Alain Cloutier
Email: six_inch_of_bl0od@hotmail.com

Tuning: A,E,A,D,F#,B


Guitar 1


      S S S S S S S S S S S S S S S S    S S S S S S S S S S S S S S S S  
B ||----------------------------------|----------------------------------|
F#||----------------------------------|----------------------------------|
D ||----------------------------------|----------------------------------|
A ||----------------------------------|----------------------------------|
E ||------------------3-3-3-3---------|----------3-3-3-3---------3-3-3-3-|
A ||--0-0-0-0-1-1-1-1---------0-0-0-0-|--1-1-1-1---------0-0-0-0---------|


  S S S S S S S S S S S S S S S S    S S S S S S S S S S S S S S S S  
----------------------------------|----------------------------------|
----------------------------------|----------------------------------|
----------------------------------|----------------------------------|
----------------------------------|----------------------------------|
------------------3-3-3-3---------|----------3-3-3-3---------3-3-3-3-|
--0-0-0-0-1-1-1-1---------0-0-0-0-|--1-1-1-1---------0-0-0-0---------|


  S S S S S S S S S S S S S S S S    S S S S S S S S S S S S S S S S  
----------------------------------|----------------------------------|
----------------------------------|----------------------------------|
----------------------------------|----------------------------------|
------------------3-3-3-3---------|------------------3-3-3-3---------|
--1-1-1-1-4-4-4-4---------4-4-4-4-|--1-1-1-1-4-4-4-4---------4-4-4-4-|
----------------------------------|----------------------------------|


  S S S S S S S S S S S S S S S S    S S S S S S S S S S S S S S S S  
----------------------------------|----------------------------------|
----------------------------------|----------------------------------|
----------------------------------|----------------------------------|
------------------2-2-2-2---------|------------------2-2-2-2---------|
--0-0-0-0-3-3-3-3---------3-3-3-3-|--0-0-0-0-3-3-3-3---------3-3-3-3-|
----------------------------------|----------------------------------|


  S S S S S S S S S S S S S S S S    S S S S S S S S S S S S S S S S  
----------------------------------|----------------------------------|
----------------------------------|----------------------------------|
----------------------------------|----------------------------------|
----------------------------------|----------------------------------|
------------------3-3-3-3---------|----------3-3-3-3---------3-3-3-3-|
--0-0-0-0-1-1-1-1---------0-0-0-0-|--1-1-1-1---------0-0-0-0---------|


  S S S S S S S S S S S S S S S S    S S S S S S S S S S S S S S S S  
----------------------------------|----------------------------------|
----------------------------------|----------------------------------|
----------------------------------|----------------------------------|
----------------------------------|----------------------------------|
------------------3-3-3-3---------|----------3-3-3-3---------3-3-3-3-|
--0-0-0-0-1-1-1-1---------0-0-0-0-|--1-1-1-1---------0-0-0-0---------|


  S S S S S S S S S S S S S S S S    S S S S S S S S S S S S S S S S  
----------------------------------|----------------------------------|
----------------------------------|----------------------------------|
----------------------------------|----------------------------------|
------------------3-3-3-3---------|------------------3-3-3-3---------|
--1-1-1-1-4-4-4-4---------4-4-4-4-|--1-1-1-1-4-4-4-4---------4-4-4-4-|
----------------------------------|----------------------------------|


  S S S S S S S S S S S S S S S S    S S S S S S S S S S S S S S S S  
----------------------------------|----------------------------------|
----------------------------------|----------------------------------|
----------------------------------|----------------------------------|
------------------2-2-2-2---------|------------------2-2-2-2---------|
--0-0-0-0-3-3-3-3---------3-3-3-3-|--0-0-0-0-3-3-3-3---------3-3-3-3-|
----------------------------------|----------------------------------|


  PM   PM            PM      PM            PM             
  Q    Q      Q      Q       Q      Q      Q      Q       
--------------------------|------------------------------|
--------------------------|------------------------------|
--------------------------|------------------------------|
------------<>3br---------|-------<>3br---------<>3br----|
--0----1-------------0----|--1-------------0-------------|
--0----1-------------0----|--1-------------0-------------|


  PM   PM            PM      PM            PM             
  Q    Q      Q      Q       Q      Q      Q      Q       
--------------------------|------------------------------|
--------------------------|------------------------------|
--------------------------|------------------------------|
------------<>3br---------|-------<>3br---------<>3br----|
--0----1-------------0----|--1-------------0-------------|
--0----1-------------0----|--1-------------0-------------|


     PM PM PM    PM PM PM       PM PM PM    PM PM PM  
  E  E  E  E  E  E  E  E     E  E  E  E  E  E  E  E   
--------------------------|--------------------------|
--------------------------|--------------------------|
--------------------------|--------------------------|
--3-----------3-----------|--3-----------3-----------|
-----4--1--4-----4--1--4--|-----4--1--4-----4--1--4--|
--------------------------|--------------------------|


     PM PM PM    PM PM PM       PM PM PM    PM PM PM  
  E  E  E  E  E  E  E  E     E  E  E  E  E  E  E  E   
--------------------------|--------------------------|
--------------------------|--------------------------|
--------------------------|--------------------------|
--2-----------2-----------|--2-----------2-----------|
-----3--0--3-----3--0--3--|-----3--0--3-----3--0--3--|
--------------------------|--------------------------|


  PM   PM            PM      PM            PM             
  Q    Q      Q      Q       Q      Q      Q      Q       
--------------------------|------------------------------|
--------------------------|------------------------------|
--------------------------|------------------------------|
------------<>3br---------|-------<>3br---------<>3br----|
--0----1-------------0----|--1-------------0-------------|
--0----1-------------0----|--1-------------0-------------|


  PM   PM            PM      PM            PM             
  Q    Q      Q      Q       Q      Q      Q      Q       
--------------------------|------------------------------|
--------------------------|------------------------------|
--------------------------|------------------------------|
------------<>3br---------|-------<>3br---------<>3br----|
--0----1-------------0----|--1-------------0-------------|
--0----1-------------0----|--1-------------0-------------|


     PM PM PM    PM PM PM       PM PM PM    PM PM PM  
  E  E  E  E  E  E  E  E     E  E  E  E  E  E  E  E   
--------------------------|--------------------------|
--------------------------|--------------------------|
--------------------------|--------------------------|
--3-----------3-----------|--3-----------3-----------|
-----4--1--4-----4--1--4--|-----4--1--4-----4--1--4--|
--------------------------|--------------------------|


     PM PM PM    PM PM PM       PM PM PM    PM PM PM                      
  E  E  E  E  E  E  E  E     E  E  E  E  E  E  E  E     W                 
--------------------------|--------------------------|-------------------|
--------------------------|--------------------------|-------------------|
--------------------------|--------------------------|-------------------|
--2-----------2-----------|--2-----------2-----------|--1----------------|
-----3--0--3-----3--0--3--|-----3--0--3-----3--0--3--|--1----------------|
--------------------------|--------------------------|--1----------------|


  H        H           W                   W                 
--------------------|-------------------|-------------------|
--------------------|-------------------|-------------------|
--------------------|-------------------|-------------------|
--L--------8--------|--7----------------|--L----------------|
--L--------8--------|--7----------------|--L----------------|
--L--------8--------|--7----------------|--L----------------|


  W                   H        H           W                 
-------------------|--------------------|-------------------|
-------------------|--------------------|-------------------|
-------------------|--------------------|-------------------|
--1----------------|--L--------8--------|--9----------------|
--1----------------|--L--------8--------|--9----------------|
--1----------------|--L--------8--------|--9----------------|


  W                   W                   H        H         
-------------------|-------------------|--------------------|
-------------------|-------------------|--------------------|
-------------------|-------------------|--------------------|
--L----------------|--1----------------|--L--------8--------|
--L----------------|--1----------------|--L--------8--------|
--L----------------|--1----------------|--L--------8--------|


  W                   W                   W                 
-------------------|-------------------|-------------------|
-------------------|-------------------|-------------------|
-------------------|-------------------|-------------------|
--7----------------|--L----------------|--1----------------|
--7----------------|--L----------------|--1----------------|
--7----------------|--L----------------|--1----------------|


  H        H           W                   Q    Q     Q    Q     
--------------------|-------------------|-----------------------|
--------------------|-------------------|-----------------------|
--------------------|-------------------|-----------------------|
--L--------8--------|--9----------------|--L----L\----L----L----|
--L--------8--------|--9----------------|--L----L\----L----L----|
--L--------8--------|--9----------------|--L----L\----L----L----|


  PM     PM     PM      PM     PM     PM      PM     PM     PM    
  Q.     Q.     Q       Q.     Q.     Q       Q.     Q.     Q     
---------------------|---------------------|---------------------|
---------------------|---------------------|---------------------|
---------------------|---------------------|---------------------|
---------------------|---------------------|---------------------|
--1------4------0----|--1------4------0----|--1------4------0----|
--1------4------0----|--1------4------0----|--1------4------0----|


  PM     PM     PM      PM     PM     PM      PM     PM     PM    
  Q.     Q.     Q       Q.     Q.     Q       Q.     Q.     Q     
---------------------|---------------------|---------------------|
---------------------|---------------------|---------------------|
---------------------|---------------------|---------------------|
---------------------|---------------------|---------------------|
--1------4------0----|--1------4------0----|--1------4------0----|
--1------4------0----|--1------4------0----|--1------4------0----|


  PM     PM     PM      PM     PM     PM                            
  Q.     Q.     Q       Q.     Q.     Q                             
---------------------|---------------------|-------|-------|-------|
---------------------|---------------------|-------|-------|-------|
---------------------|---------------------|-------|-------|-------|
---------------------|---------------------|-------|-------|-------|
--1------4------0----|--1------4------0----|-------|-------|-------|
--1------4------0----|--1------4------0----|-------|-------|-------|


                                  PM     PM     PM    
          Q    Q     H            Q.     Q.     Q     
-------|-----------------------|---------------------|
-------|-----------------------|---------------------|
-------|-----------------------|---------------------|
-------|-----------------------|---------------------|
-------|------------12\--------|--1------4------0----|
-------|------------12\--------|--1------4------0----|


  PM     PM     PM      PM     PM     PM      PM     PM     PM    
  Q.     Q.     Q       Q.     Q.     Q       Q.     Q.     Q     
---------------------|---------------------|---------------------|
---------------------|---------------------|---------------------|
---------------------|---------------------|---------------------|
---------------------|---------------------|---------------------|
--1------4------0----|--1------4------0----|--1------4------0----|
--1------4------0----|--1------4------0----|--1------4------0----|


  PM     PM     PM      PM     PM     PM                        
  Q.     Q.     Q       Q.     Q.     Q       W                 
---------------------|---------------------|-------------------|
---------------------|---------------------|-------------------|
---------------------|---------------------|-------------------|
---------------------|---------------------|-------------------|
--1------4------0----|--1------4------0----|--8----------------|
--1------4------0----|--1------4------0----|--8----------------|


                         PM     PM     PM      PM     PM     PM    
  H         H            Q.     Q.     Q       Q.     Q.     Q     
----------------------|---------------------|---------------------|
----------------------|---------------------|---------------------|
----------------------|---------------------|---------------------|
----------------------|---------------------|---------------------|
--7--------12\--------|--1------4------0----|--1------4------0----|
--7--------12\--------|--1------4------0----|--1------4------0----|


  PM     PM     PM      PM     PM     PM      PM     PM     PM    
  Q.     Q.     Q       Q.     Q.     Q       Q.     Q.     Q     
---------------------|---------------------|---------------------|
---------------------|---------------------|---------------------|
---------------------|---------------------|---------------------|
---------------------|---------------------|---------------------|
--1------4------0----|--1------4------0----|--1------4------0----|
--1------4------0----|--1------4------0----|--1------4------0----|


  PM     PM     PM                                               
  Q.     Q.     Q       W                   H         H          
---------------------|-------------------|----------------------|
---------------------|-------------------|----------------------|
---------------------|-------------------|----------------------|
---------------------|-------------------|----------------------|
--1------4------0----|--8----------------|--5--------12\--------|
--1------4------0----|--8----------------|--5--------12\--------|


  PM PM PM    PM PM    PM    PM    PM PM PM PM PM     
  E  E  E  E  E  E  E  E     E  E  E  E  E  E  E  E   
--------------------------|--------------------------|
--------------------------|--------------------------|
--------------------------|--------------------------|
--------------------------|--------------------------|
-----------5--------4-----|-----7-----------------5--|
--0--0--0-----0--0-----0--|--0-----0--0--0--0--0-----|


  PM PM    PM PM    PM PM    PM PM PM    PM PM    PM  
  E  E  E  E  E  E  E  E     E  E  E  E  E  E  E  E   
--------------------------|--------------------------|
--------------------------|--------------------------|
--------------------------|--------------------------|
--------------------------|--------------------------|
--------4--------8--------|-----------5--------4-----|
--0--0-----0--0-----0--0--|--0--0--0-----0--0-----0--|


  PM    PM PM PM PM PM             PM PM PM          
  E  E  E  E  E  E  E  E     E  E  E  E  E  Q    E   
--------------------------|-------------------------|
--------------------------|-------------------------|
--------------------------|-------------------------|
--------------------------|-------------------------|
-----7-----------------5--|--L--7-----------7----8--|
--0-----0--0--5--5--5-----|--------7--7--7----------|


  PM PM PM    PM PM    PM    PM    PM PM PM PM PM     
  E  E  E  E  E  E  E  E     E  E  E  E  E  E  E  E   
--------------------------|--------------------------|
--------------------------|--------------------------|
--------------------------|--------------------------|
--------------------------|--------------------------|
-----------5--------4-----|-----7-----------------5--|
--0--0--0-----0--0-----0--|--0-----0--0--0--0--0-----|


  PM PM    PM PM    PM PM    PM PM PM    PM PM    PM  
  E  E  E  E  E  E  E  E     E  E  E  E  E  E  E  E   
--------------------------|--------------------------|
--------------------------|--------------------------|
--------------------------|--------------------------|
--------------------------|--------------------------|
--------4--------8--------|-----------5--------4-----|
--0--0-----0--0-----0--0--|--0--0--0-----0--0-----0--|


  PM    PM PM PM PM PM             PM PM PM          
  E  E  E  E  E  E  E  E     E  E  E  E  E  Q    E   
--------------------------|-------------------------|
--------------------------|-------------------------|
--------------------------|-------------------------|
--------------------------|-------------------------|
-----7-----------------5--|--L--7-----------7----8--|
--0-----0--0--5--5--5-----|--------7--7--7----------|


  PM PM PM    PM PM    PM    PM     PM PM PM PM PM     
  E  E  E  E  E  E  E  E     E   E  E  E  E  E  E  E   
--------------------------|---------------------------|
--------------------------|---------------------------|
--------------------------|---------------------------|
--------------------------|---------------------------|
-----------8--------7-----|-----10-----------------8--|
--0--0--0-----0--0-----0--|--0------0--0--0--0--0-----|


  PM PM    PM PM     PM PM    PM PM PM    PM PM    PM  
  E  E  E  E  E   E  E  E     E  E  E  E  E  E  E  E   
---------------------------|--------------------------|
---------------------------|--------------------------|
---------------------------|--------------------------|
---------------------------|--------------------------|
--------7--------12--------|-----------8--------7-----|
--0--0-----0--0------0--0--|--0--0--0-----0--0-----0--|


  PM     PM PM PM PM PM              PM PM PM            
  E   E  E  E  E  E  E  E     E   E  E  E  E   Q     E   
---------------------------|----------------------------|
---------------------------|----------------------------|
---------------------------|----------------------------|
---------------------------|----------------------------|
-----10-----------------8--|--L--10-----------10----12--|
--0------0--0--5--5--5-----|---------7--7--7------------|


  PM PM PM    PM PM    PM    PM     PM PM PM PM PM     
  E  E  E  E  E  E  E  E     E   E  E  E  E  E  E  E   
--------------------------|---------------------------|
--------------------------|---------------------------|
--------------------------|---------------------------|
--------------------------|---------------------------|
-----------8--------7-----|-----10-----------------8--|
--0--0--0-----0--0-----0--|--0------0--0--0--0--0-----|


  PM PM    PM PM     PM PM    PM PM PM    PM PM    PM  
  E  E  E  E  E   E  E  E     E  E  E  E  E  E  E  E   
---------------------------|--------------------------|
---------------------------|--------------------------|
---------------------------|--------------------------|
---------------------------|--------------------------|
--------7--------12--------|-----------8--------7-----|
--0--0-----0--0------0--0--|--0--0--0-----0--0-----0--|


  PM     PM PM PM PM PM              PM PM PM            
  E   E  E  E  E  E  E  E     E   E  E  E  E   Q     E   
---------------------------|----------------------------|
---------------------------|----------------------------|
---------------------------|----------------------------|
---------------------------|----------------------------|
-----10-----------------8--|--L--10-----------10----12--|
--0------0--0--5--5--5-----|---------7--7--7------------|


  S S S S S S S S S S S S S S S S    S S S S S S S S S S S S S S S S  
----------------------------------|----------------------------------|
----------------------------------|----------------------------------|
----------------------------------|----------------------------------|
----------------------------------|----------------------------------|
----------------------------------|----------------------------------|
--5-5-5-5-5-5-5-5-5-5-5-5-5-5-5-5-|--5-5-5-5-7-7-5-5-7-7-7-7-8-8-8-8-|


  S S S S S S S S S S S S S S S S    S S S S S S S S S S S S S S S S  
----------------------------------|----------------------------------|
----------------------------------|----------------------------------|
----------------------------------|----------------------------------|
----------------------------------|----------------------------------|
----------------------------------|----------------------------------|
--1-1-1-1-1-1-1-1-1-1-1-1-1-1-1-1-|--1-1-1-1-1-1-1-1-0-0-0-0-4-4-4-4-|


  S S S S S S S S S S S S S S S S    S S S S S S S S S S S S S S S S  
----------------------------------|----------------------------------|
----------------------------------|----------------------------------|
----------------------------------|----------------------------------|
----------------------------------|----------------------------------|
----------------------------------|----------------------------------|
--5-5-5-5-5-5-5-5-5-5-5-5-5-5-5-5-|--5-5-5-5-7-7-5-5-7-7-7-7-8-8-8-8-|


  S S S S S S S S S S S S S S S S    S S S S S S S S S S S S S S S S  
----------------------------------|----------------------------------|
----------------------------------|----------------------------------|
----------------------------------|----------------------------------|
----------------------------------|----------------------------------|
----------------------------------|----------------------------------|
--1-1-1-1-1-1-1-1-1-1-1-1-1-1-1-1-|--1-1-1-1-1-1-1-1-0-0-0-0-4-4-4-4-|


  S S S S S S S S S S S S S S S S    S S S S S S S S S S S S S S S S  
----------------------------------|----------------------------------|
----------------------------------|----------------------------------|
----------------------------------|----------------------------------|
--5-5-5-5-5-5-5-5-5-5-5-5-5-5-5-5-|--5-5-5-5-7-7-5-5-7-7-7-7-8-8-8-8-|
----------------------------------|----------------------------------|
----------------------------------|----------------------------------|


  S S S S S S S S S S S S S S S S    S S S S S S S S S S S S S S S S  
----------------------------------|----------------------------------|
----------------------------------|----------------------------------|
----------------------------------|----------------------------------|
--1-1-1-1-1-1-1-1-1-1-1-1-1-1-1-1-|--1-1-1-1-1-1-1-1-0-0-0-0-4-4-4-4-|
----------------------------------|----------------------------------|
----------------------------------|----------------------------------|


  S S S S S S S S S S S S S S S S    S S S S S S S S S S S S S S S S  
----------------------------------|----------------------------------|
----------------------------------|----------------------------------|
----------------------------------|----------------------------------|
--5-5-5-5-5-5-5-5-5-5-5-5-5-5-5-5-|--5-5-5-5-7-7-5-5-7-7-7-7-8-8-8-8-|
----------------------------------|----------------------------------|
----------------------------------|----------------------------------|


  S S S S S S S S S S S S S S S S    S S S S S S S S S S S S S S S S  
----------------------------------|----------------------------------|
----------------------------------|----------------------------------|
----------------------------------|----------------------------------|
--1-1-1-1-1-1-1-1-1-1-1-1-1-1-1-1-|--1-1-1-1-1-1-1-1-0-0-0-0-4-4-4-4-|
----------------------------------|----------------------------------|
----------------------------------|----------------------------------|


  PM PM PM PM PM PM PM PM PM PM PM PM  
  S  S  E  S  S  E  S  S  E  S  S  E   
--------------------------------------|
--------------------------------------|
--------------------------------------|
--------------------------------------|
--0--0--0--0--0--0--1--1--1--0--0--0--|
--0--0--0--0--0--0--1--1--1--0--0--0--|


  PM PM PM PM PM PM PM PM PM PM PM PM  
  S  S  E  S  S  E  S  S  E  S  S  E   
--------------------------------------|
--------------------------------------|
--------------------------------------|
--------------------------------------|
--0--0--0--1--1--1--0--0--0--0--0--0--|
--0--0--0--1--1--1--0--0--0--0--0--0--|


  PM PM PM PM PM PM PM PM PM PM PM PM  
  S  S  E  S  S  E  S  S  E  S  S  E   
--------------------------------------|
--------------------------------------|
--------------------------------------|
--------------------------------------|
--0--0--0--0--0--0--1--1--1--0--0--0--|
--0--0--0--0--0--0--1--1--1--0--0--0--|


  PM PM PM PM PM PM PM PM PM PM PM PM  
  S  S  E  S  S  E  S  S  E  S  S  E   
--------------------------------------|
--------------------------------------|
--------------------------------------|
--------------------------------------|
--0--0--0--1--1--1--0--0--0--0--0--0--|
--0--0--0--1--1--1--0--0--0--0--0--0--|


  PM PM PM PM PM PM PM PM PM PM PM PM  
  S  S  E  S  S  E  S  S  E  S  S  E   
--------------------------------------|
--------------------------------------|
--------------------------------------|
--------------------------------------|
--0--0--0--0--0--0--1--1--1--0--0--0--|
--0--0--0--0--0--0--1--1--1--0--0--0--|


  PM PM PM PM PM PM PM PM PM PM PM PM  
  S  S  E  S  S  E  S  S  E  S  S  E   
--------------------------------------|
--------------------------------------|
--------------------------------------|
--------------------------------------|
--0--0--0--1--1--1--0--0--0--0--0--0--|
--0--0--0--1--1--1--0--0--0--0--0--0--|


  PM PM PM PM PM PM PM PM PM PM PM PM        
  S  S  E  S  S  E  S  S  E  S  S  E         
--------------------------------------|-----|
--------------------------------------|-----|
--------------------------------------|-----|
--------------------------------------|-----|
--0--0--0--0--0--0--1--1--1--0--0--0--|-----|
--0--0--0--0--0--0--1--1--1--0--0--0--|-----|


  PM PM PM PM PM PM PM PM PM PM PM PM  
  S  S  E  S  S  E  S  S  E  S  S  E   
--------------------------------------|
--------------------------------------|
--------------------------------------|
--------------------------------------|
--0--0--0--0--0--0--1--1--1--0--0--0--|
--0--0--0--0--0--0--1--1--1--0--0--0--|


  PM PM PM PM PM PM PM PM PM PM PM PM  
  S  S  E  S  S  E  S  S  E  S  S  E   
--------------------------------------|
--------------------------------------|
--------------------------------------|
--------------------------------------|
--0--0--0--1--1--1--0--0--0--0--0--0--|
--0--0--0--1--1--1--0--0--0--0--0--0--|


  PM PM PM PM PM PM PM PM PM PM PM PM              
  S  S  E  S  S  E  S  S  E  S  S  E               
--------------------------------------|-----|-----|
--------------------------------------|-----|-----|
--------------------------------------|-----|-----|
--------------------------------------|-----|-----|
--0--0--0--0--0--0--1--1--1--0--0--0--|-----|-----|
--0--0--0--0--0--0--1--1--1--0--0--0--|-----|-----|


  PM PM PM PM PM                  PM PM PM PM PM                
  E  E  S  S  S  S E  E  E  E     E  E  S  S  S  S E  E  E  E   
-------------------------------|-------------------------------|
-------------------------------|-------------------------------|
-------------------------------|-------------------------------|
-------------------------------|-------------------------------|
--0--0--1--0--0----------------|--0--0--1--0--0----------------|
--0--0--1--0--0----------------|--0--0--1--0--0----------------|


  PM PM PM PM PM                  PM PM PM PM PM                
  E  E  S  S  S  S E  E  E  E     E  E  S  S  S  S E  E  E  E   
-------------------------------|-------------------------------|
-------------------------------|-------------------------------|
-------------------------------|-------------------------------|
-------------------------------|-------------------------------|
--0--0--1--0--0----------------|--0--0--1--0--0----------------|
--0--0--1--0--0----------------|--0--0--1--0--0----------------|


  PM PM PM PM PM                  PM PM PM PM PM                
  E  E  S  S  S  S E  E  E  E     E  E  S  S  S  S E  E  E  E   
-------------------------------|-------------------------------|
-------------------------------|-------------------------------|
-------------------------------|-------------------------------|
-------------------------------|-------------------------------|
--0--0--1--0--0----------------|--0--0--1--0--0----------------|
--0--0--1--0--0----------------|--0--0--1--0--0----------------|


  PM PM PM PM PM                  PM PM PM PM PM                
  E  E  S  S  S  S E  E  E  E     E  E  S  S  S  S E  E  E  E   
-------------------------------|-------------------------------|
-------------------------------|-------------------------------|
-------------------------------|-------------------------------|
-------------------------------|-------------------------------|
--0--0--1--0--0----------------|--0--0--1--0--0----------------|
--0--0--1--0--0----------------|--0--0--1--0--0----------------|


  PM PM PM PM PM                 
  E  E  S  S  S  S E  E  E  E    
-------------------------------||
-------------------------------||
-------------------------------||
-------------------------------||
--0--0--1--0--0----------------||
--0--0--1--0--0----------------||

END



Duration Legend
---------------
W - whole
H - half
Q - quarter
E - 8th
S - 16th
T - 32nd
X - 64th



Tablature Legend
----------------
L - tied note
h - hammer on
p - pull off
b - bend
S - shift slide
s - legato slide
/ -  slide into from below or out of upwards
\ -  slide into from above or out of downwards
~ - vibrato
W - wide vibrato
tr - trill
TP - tremolo picking
Tap to rate this tab
# A B C D E F G H I J K L M N O P Q R S T U V W X Y Z