Song name
# A B C D E F G H I J K L M N O P Q R S T U V W X Y Z

Postmortem Promises - Koko Massacre tab

------------------------------------------------------------------------------- 
			                    Koko massacre - Postmortem Promises
-------------------------------------------------------------------------------

Tabbed by: Alain Cloutier
Email: six_inch_of_bl0od@hotmail.com

Tuning: A,E,A,D,F#,B


Guitar 1

      S S S S S S S S S S S S S S S S    S S S S S S S S S S S S S S S S  
B ||----------------------------------|----------------------------------|
F#||----------------------------------|----------------------------------|
D ||----------------------------------|----------------------------------|
A ||----------------------------------|----------------------------------|
E ||----------5-5-5-5-4-4-4-4---------|----------------------------------|
A ||--0-0-0-0-----------------7-7-7-7-|--8-8-8-8-7-7-7-7-5-5-5-5-7-7-7-7-|


  S S S S S S S S S S S S S S S S    S S S S S S S S S S S S S S S S  
----------------------------------|----------------------------------|
----------------------------------|----------------------------------|
----------------------------------|----------------------------------|
----------------------------------|----------------------------------|
----------5-5-5-5-4-4-4-4---------|----------------------------------|
--0-0-0-0-----------------7-7-7-7-|--8-8-8-8-7-7-7-7-5-5-5-5-3-3-3-3-|


  S S S S S S S S S S S S S S S S    S S S S S S S S S S S S S S S S  
----------------------------------|----------------------------------|
----------------------------------|----------------------------------|
----------------------------------|----------------------------------|
----------------------------------|----------------------------------|
----------5-5-5-5-4-4-4-4---------|----------------------------------|
--0-0-0-0-----------------7-7-7-7-|--8-8-8-8-7-7-7-7-5-5-5-5-7-7-7-7-|


  S S S S S S S S S S S S S S S S    S S S S S S S S S S S S S S S S  
----------------------------------|----------------------------------|
----------------------------------|----------------------------------|
----------------------------------|----------------------------------|
----------------------------------|----------------------------------|
----------------------------------|--4-4-4-4-4-4-4-4-----------------|
--8-8-8-8-8-8-8-8-7-7-7-7-5-5-5-5-|------------------7-7-7-7-8-8-8-8-|


  S S S S S S S S S S S S S S S S    S S S S S S S S S S S S S S S S  
----------------------------------|----------------------------------|
----------------------------------|----------------------------------|
----------------------------------|----------------------------------|
----------------------------------|----------------------------------|
----------5-5-5-5-4-4-4-4---------|----------------------------------|
--0-0-0-0-----------------7-7-7-7-|--8-8-8-8-7-7-7-7-5-5-5-5-7-7-7-7-|


  S S S S S S S S S S S S S S S S    S S S S S S S S S S S S S S S S  
----------------------------------|----------------------------------|
----------------------------------|----------------------------------|
----------------------------------|----------------------------------|
----------------------------------|----------------------------------|
----------5-5-5-5-4-4-4-4---------|----------------------------------|
--0-0-0-0-----------------7-7-7-7-|--8-8-8-8-7-7-7-7-5-5-5-5-3-3-3-3-|


  S S S S S S S S S S S S S S S S    S S S S S S S S S S S S S S S S  
----------------------------------|----------------------------------|
----------------------------------|----------------------------------|
----------------------------------|----------------------------------|
----------------------------------|----------------------------------|
----------5-5-5-5-4-4-4-4---------|----------------------------------|
--0-0-0-0-----------------7-7-7-7-|--8-8-8-8-7-7-7-7-5-5-5-5-7-7-7-7-|


  S S S S S S S S S S S S S S S S    E  E  H.            
----------------------------------|---------------------|
----------------------------------|---------------------|
----------------------------------|---------------------|
----------------------------------|---------------------|
----------------------------------|--4------------------|
--8-8-8-8-8-8-8-8-7-7-7-7-5-5-5-5-|---------------------|


  S S S S S S S S S S S S  S  S  S  S  
--------------------------------------|
--------------------------------------|
--------------------------------------|
--------------------------------------|
----------8-8-8-8-7-7-7-7-------------|
--0-0-0-0-----------------10-10-10-10-|


   S  S  S  S  S  S  S  S S S S S  S  S  S  S  
----------------------------------------------|
----------------------------------------------|
----------------------------------------------|
----------------------------------------------|
----------------------------------------------|
--11-11-11-11-10-10-10-10-8-8-8-8-10-10-10-10-|


  S S S S S S S S S S S S  S  S  S  S  
--------------------------------------|
--------------------------------------|
--------------------------------------|
--------------------------------------|
----------8-8-8-8-7-7-7-7-------------|
--0-0-0-0-----------------10-10-10-10-|


   S  S  S  S  S  S  S  S S S S S S S S S  
------------------------------------------|
------------------------------------------|
------------------------------------------|
------------------------------------------|
------------------------------------------|
--11-11-11-11-10-10-10-10-8-8-8-8-6-6-6-6-|


  S S S S S S S S S S S S  S  S  S  S  
--------------------------------------|
--------------------------------------|
--------------------------------------|
--------------------------------------|
----------8-8-8-8-7-7-7-7-------------|
--0-0-0-0-----------------10-10-10-10-|


   S  S  S  S  S  S  S  S S S S S  S  S  S  S  
----------------------------------------------|
----------------------------------------------|
----------------------------------------------|
----------------------------------------------|
----------------------------------------------|
--11-11-11-11-10-10-10-10-8-8-8-8-10-10-10-10-|


   S  S  S  S  S  S  S  S  S  S  S  S S S S S  
----------------------------------------------|
----------------------------------------------|
----------------------------------------------|
----------------------------------------------|
----------------------------------------------|
--11-11-11-11-11-11-11-11-10-10-10-10-8-8-8-8-|


  S S S S S S S S  S  S  S  S  S  S  S  S  
------------------------------------------|
------------------------------------------|
------------------------------------------|
------------------------------------------|
--7-7-7-7-7-7-7-7-------------------------|
------------------10-10-10-10-11-11-11-11-|


  S S S S S S S S S S S S  S  S  S  S  
--------------------------------------|
--------------------------------------|
--------------------------------------|
--------------------------------------|
----------8-8-8-8-7-7-7-7-------------|
--0-0-0-0-----------------10-10-10-10-|


   S  S  S  S  S  S  S  S S S S S  S  S  S  S  
----------------------------------------------|
----------------------------------------------|
----------------------------------------------|
----------------------------------------------|
----------------------------------------------|
--11-11-11-11-10-10-10-10-8-8-8-8-10-10-10-10-|


  S S S S S S S S S S S S  S  S  S  S  
--------------------------------------|
--------------------------------------|
--------------------------------------|
--------------------------------------|
----------8-8-8-8-7-7-7-7-------------|
--0-0-0-0-----------------10-10-10-10-|


   S  S  S  S  S  S  S  S S S S S S S S S  
------------------------------------------|
------------------------------------------|
------------------------------------------|
------------------------------------------|
------------------------------------------|
--11-11-11-11-10-10-10-10-8-8-8-8-6-6-6-6-|


  S S S S S S S S S S S S  S  S  S  S  
--------------------------------------|
--------------------------------------|
--------------------------------------|
--------------------------------------|
----------8-8-8-8-7-7-7-7-------------|
--0-0-0-0-----------------10-10-10-10-|


   S  S  S  S  S  S  S  S S S S S  S  S  S  S  
----------------------------------------------|
----------------------------------------------|
----------------------------------------------|
----------------------------------------------|
----------------------------------------------|
--11-11-11-11-10-10-10-10-8-8-8-8-10-10-10-10-|


   S  S  S  S  S  S  S  S  S  S  S  S S S S S  
----------------------------------------------|
----------------------------------------------|
----------------------------------------------|
----------------------------------------------|
----------------------------------------------|
--11-11-11-11-11-11-11-11-10-10-10-10-8-8-8-8-|


  S S S S S S S S  S  S  S  S  S  S  S  S    E  E  E  E  E  E  E  E   
------------------------------------------|--------------------------|
------------------------------------------|--------------------------|
------------------------------------------|--------------------------|
------------------------------------------|--------------------------|
--7-7-7-7-7-7-7-7-------------------------|--0--------5-----4-----5--|
------------------10-10-10-10-11-11-11-11-|--0--0--0-----0-----0-----|


  E  E  E  E  S S E  S S E     E  E  E  E  E  E  E  E   
----------------------------|--------------------------|
----------------------------|--------------------------|
----------------------------|--------------------------|
----------------------------|--------------------------|
----------------------------|--0--------5-----4-----1--|
--0--0--0--0--0-0-0--0-0-0--|--0--0--0-----0-----0-----|


  E  E  E  E  E  E   E   E     E  E  E  E  E  E  E  E   
----------------------------|--------------------------|
----------------------------|--------------------------|
----------------------------|--------------------------|
----------------------------|--------------------------|
-----4-----1-----1h--4p--1--|--0--------5-----4-----5--|
--0-----0-----0-------------|--0--0--0-----0-----0-----|


  E  E  E  E  S S E  S S E     S S E  S S E  Q    Q     
----------------------------|--------------------------|
----------------------------|--------------------------|
----------------------------|--------------------------|
----------------------------|--------------------------|
----------------------------|----------------8----7----|
--0--0--0--0--0-0-0--0-0-0--|--0-0-0--0-0-0------------|


  S S E  S S E  Q    Q       E  E  E  E  E  E  E  E   
--------------------------|--------------------------|
--------------------------|--------------------------|
--------------------------|--------------------------|
--------------------------|--------------------------|
----------------7----5----|--0--------5-----4-----5--|
--0-0-0--0-0-0------------|--0--0--0-----0-----0-----|


  E  E  E  E  S S E  S S E     E  E  E  E  E  E  E  E   
----------------------------|--------------------------|
----------------------------|--------------------------|
----------------------------|--------------------------|
----------------------------|--------------------------|
----------------------------|--0--------5-----4-----1--|
--0--0--0--0--0-0-0--0-0-0--|--0--0--0-----0-----0-----|


  E  E  E  E  E  E   E   E     E  E  E  E  E  E  E  E   
----------------------------|--------------------------|
----------------------------|--------------------------|
----------------------------|--------------------------|
----------------------------|--------------------------|
-----4-----1-----1h--4p--1--|--0--------5-----4-----5--|
--0-----0-----0-------------|--0--0--0-----0-----0-----|


  E  E  E  E  S S E  S S E     S S E  S S E  Q    Q     
----------------------------|--------------------------|
----------------------------|--------------------------|
----------------------------|--------------------------|
----------------------------|--------------------------|
----------------------------|----------------8----7----|
--0--0--0--0--0-0-0--0-0-0--|--0-0-0--0-0-0------------|


  S S E  S S E  Q    Q       E  E  E  E  E  E  E  E   
--------------------------|--------------------------|
--------------------------|--------------------------|
--------------------------|--------------------------|
--------------------------|--------------------------|
----------------7----5----|--0--------8-----7-----8--|
--0-0-0--0-0-0------------|--0--0--0-----0-----0-----|


  E  E  E  E  S S E  S S E     E  E  E  E  E  E  E  E   
----------------------------|--------------------------|
----------------------------|--------------------------|
----------------------------|--------------------------|
----------------------------|--------------------------|
--L-------------------------|--0--------8-----7-----8--|
-----0--0--0--0-0-0--0-0-0--|--0--0--0-----0-----0-----|


  E   E  E   E  E   E   E   E     E  E  E  E  E  E  E  E   
-------------------------------|--------------------------|
-------------------------------|--------------------------|
-------------------------------|--------------------------|
-------------------------------|--------------------------|
-----10-----12-----10p--8p--7--|--0--------8-----7-----8--|
--0------0------0--------------|--0--0--0-----0-----0-----|


  E  E  E  E  S S E  S S E     S S E  S S E   Q     Q     
----------------------------|----------------------------|
----------------------------|----------------------------|
----------------------------|----------------------------|
----------------------------|----------------------------|
--L-------------------------|----------------12----10----|
-----0--0--0--0-0-0--0-0-0--|--0-0-0--0-0-0--------------|


  S S E  S S E   Q    Q       E  E  E  E  E  E  E  E   
---------------------------|--------------------------|
---------------------------|--------------------------|
---------------------------|--------------------------|
---------------------------|--------------------------|
----------------10----8----|--0--------8-----7-----8--|
--0-0-0--0-0-0-------------|--0--0--0-----0-----0-----|


  E  E  E  E  S S E  S S E     E  E  E  E  E  E  E  E   
----------------------------|--------------------------|
----------------------------|--------------------------|
----------------------------|--------------------------|
----------------------------|--------------------------|
--L-------------------------|--0--------8-----7-----8--|
-----0--0--0--0-0-0--0-0-0--|--0--0--0-----0-----0-----|


  E   E  E   E  E   E   E   E     E  E  E  E  E  E  E  E   
-------------------------------|--------------------------|
-------------------------------|--------------------------|
-------------------------------|--------------------------|
-------------------------------|--------------------------|
-----10-----12-----10p--8p--7--|--0--------8-----7-----8--|
--0------0------0--------------|--0--0--0-----0-----0-----|


  E  E  E  E  S S E  S S E     S S E  S S E   Q     Q     
----------------------------|----------------------------|
----------------------------|----------------------------|
----------------------------|----------------------------|
----------------------------|----------------------------|
--L-------------------------|----------------12----10----|
-----0--0--0--0-0-0--0-0-0--|--0-0-0--0-0-0--------------|


  S S E  S S E   Q    Q     
---------------------------|
---------------------------|
---------------------------|
---------------------------|
----------------10----8----|
--0-0-0--0-0-0-------------|


  Timing isnt good but easy to get                 
  PM                                PM   PM        
                                    |--3-|         
  H                                 Q    H         
--------------------------------------------------|
--------------------------------------------------|
--------------------------------------------------|
--------------------------------------------------|
--0---------------------------------0----0--------|
--0---------------------------------0----0--------|


  when listening to the song                            
  PM                            PM       PM   PM        
                                         |--3-|         
  W                             H        Q    H         
-----------------------------|-------------------------|
-----------------------------|-------------------------|
-----------------------------|-------------------------|
-----------------------------|-------------------------|
--0--------------------------|--0--------0----0--------|
--0--------------------------|--0--------0----0--------|


  PM       PM PM        PM       PM   PM          PM                
                                 |--3-|                             
  H        E  Q.        H        Q    H           W                 
---------------------|-------------------------|-------------------|
---------------------|-------------------------|-------------------|
---------------------|-------------------------|-------------------|
---------------------|-------------------------|-------------------|
--0--------0--0------|--0--------0----0--------|--0----------------|
--0--------0--0------|--0--------0----0--------|--0----------------|


  PM       PM   PM          PM       PM PM        PM       PM   PM        
           |--3-|                                          |--3-|         
  H        Q    H           H        E  Q.        H        Q    H         
-------------------------|---------------------|-------------------------|
-------------------------|---------------------|-------------------------|
-------------------------|---------------------|-------------------------|
-------------------------|---------------------|-------------------------|
--0--------0----0--------|--0--------0--0------|--0--------0----0--------|
--0--------0----0--------|--0--------0--0------|--0--------0----0--------|


  PM                  PM       PM   PM          PM       PM PM      
                               |--3-|                               
  W                   H        Q    H           H        E  Q.      
-------------------|-------------------------|---------------------|
-------------------|-------------------------|---------------------|
-------------------|-------------------------|---------------------|
-------------------|-------------------------|---------------------|
--0----------------|--0--------0----0--------|--0--------0--0------|
--0----------------|--0--------0----0--------|--0--------0--0------|


  PM       PM   PM          PM                  PM       PM   PM        
           |--3-|                                        |--3-|         
  H        Q    H           W                   H        Q    H         
-------------------------|-------------------|-------------------------|
-------------------------|-------------------|-------------------------|
-------------------------|-------------------|-------------------------|
-------------------------|-------------------|-------------------------|
--0--------0----0--------|--0----------------|--0--------0----0--------|
--0--------0----0--------|--0----------------|--0--------0----0--------|


  PM                          PM PM                    
  W                           E  E  E  E  E  E  E  E   
-------------------|-------|--------------------------|
-------------------|-------|--------------------------|
-------------------|-------|--------------------------|
-------------------|-------|--------------------------|
--0----------------|-------|--0--0--------------------|
--0----------------|-------|--0--0--------------------|


              PM PM          PM PM                    
  E  E  E  E  E  E  E  E     E  E  E  E  E  E  E  E   
--------------------------|--------------------------|
--------------------------|--------------------------|
--------------------------|--------------------------|
--------------------------|--------------------------|
--------------0--0--------|--0--0--------------------|
--------------0--0--------|--0--0--------------------|


                             PM PM                    
  E  E  E  E  E  E  E  E     E  E  E  E  E  E  E  E   
--------------------------|--------------------------|
--------------------------|--------------------------|
--------------------------|--------------------------|
--------------------------|--------------------------|
--------------------------|--0--0--------------------|
--------------------------|--0--0--------------------|


              PM PM          PM PM                    
  E  E  E  E  E  E  E  E     E  E  E  E  E  E  E  E   
--------------------------|--------------------------|
--------------------------|--------------------------|
--------------------------|--------------------------|
--------------------------|--------------------------|
--------------0--0--------|--0--0--------------------|
--------------0--0--------|--0--0--------------------|


              PM PM          PM PM                    
  E  E  E  E  E  E  E  E     E  E  E  E  E  E  E  E   
--------------------------|--------------------------|
--------------------------|--------------------------|
--------------------------|--------------------------|
--------------------------|--------------------------|
--------------0--0--------|--0--0--------------------|
--------------0--0--------|--0--0--------------------|


              PM PM          PM PM                    
  E  E  E  E  E  E  E  E     E  E  E  E  E  E  E  E   
--------------------------|--------------------------|
--------------------------|--------------------------|
--------------------------|--------------------------|
--------------------------|--------------------------|
--------------0--0--------|--0--0--------------------|
--------------0--0--------|--0--0--------------------|


                             PM PM                    
  E  E  E  E  E  E  E  E     E  E  E  E  E  E  E  E   
--------------------------|--------------------------|
--------------------------|--------------------------|
--------------------------|--------------------------|
--------------------------|--------------------------|
--------------------------|--0--0--------------------|
--------------------------|--0--0--------------------|


              PM PM          PM PM                    
  E  E  E  E  E  E  E  E     E  E  E  E  E  E  E  E   
--------------------------|--------------------------|
--------------------------|--------------------------|
--------------------------|--------------------------|
--------------------------|--------------------------|
--------------0--0--------|--0--0--------------------|
--------------0--0--------|--0--0--------------------|


              PM PM          PM PM    PM    PM    PM  
  E  E  E  E  E  E  E  E     E  E  E  E  E  E  E  E   
--------------------------|--------------------------|
--------------------------|--------------------------|
--------------------------|--------------------------|
--------------------------|--------------------------|
--------------0--0--------|--------5-----4-----------|
--------------0--0--------|--0--0-----0-----0--7--0--|


     PM    PM    PM         PM PM    PM    PM    PM  
  E  E  E  E  E  E  Q       E  E  E  E  E  E  E  E   
-------------------------|--------------------------|
-------------------------|--------------------------|
-------------------------|--------------------------|
-------------------------|--------------------------|
-------------------------|--------5-----4-----------|
--8--0--7--0--5--0--7----|--0--0-----0-----0--7--0--|


     PM    PM    PM         PM PM    PM    PM    PM  
  E  E  E  E  E  E  Q       E  E  E  E  E  E  E  E   
-------------------------|--------------------------|
-------------------------|--------------------------|
-------------------------|--------------------------|
-------------------------|--------------------------|
-------------------------|--------5-----4-----------|
--8--0--7--0--5--0--3----|--0--0-----0-----0--7--0--|


     PM    PM    PM                                          
  E  E  E  E  E  E  Q       S S S S S S S S S S S S S S S S  
-------------------------|----------------------------------|
-------------------------|----------------------------------|
-------------------------|----------------------------------|
-------------------------|----------------------------------|
-------------------------|----------------------------------|
--8--0--7--0--5--0--7----|--8-8-8-8-8-8-8-8-7-7-7-7-5-5-5-5-|


                                     PM PM    PM    PM    PM  
  S S S S S S S S S S S S S S S S    E  E  E  E  E  E  E  E   
----------------------------------|--------------------------|
----------------------------------|--------------------------|
----------------------------------|--------------------------|
----------------------------------|--------------------------|
--4-4-4-4-4-4-4-4-----------------|--------5-----4-----------|
------------------7-7-7-7-8-8-8-8-|--0--0-----0-----0--7--0--|


     PM    PM    PM         PM PM    PM    PM    PM  
  E  E  E  E  E  E  Q       E  E  E  E  E  E  E  E   
-------------------------|--------------------------|
-------------------------|--------------------------|
-------------------------|--------------------------|
-------------------------|--------------------------|
-------------------------|--------5-----4-----------|
--8--0--7--0--5--0--7----|--0--0-----0-----0--7--0--|


     PM    PM    PM         PM PM    PM    PM    PM  
  E  E  E  E  E  E  Q       E  E  E  E  E  E  E  E   
-------------------------|--------------------------|
-------------------------|--------------------------|
-------------------------|--------------------------|
-------------------------|--------------------------|
-------------------------|--------5-----4-----------|
--8--0--7--0--5--0--3----|--0--0-----0-----0--7--0--|


     PM    PM    PM                                          
  E  E  E  E  E  E  Q       S S S S S S S S S S S S S S S S  
-------------------------|----------------------------------|
-------------------------|----------------------------------|
-------------------------|----------------------------------|
-------------------------|----------------------------------|
-------------------------|----------------------------------|
--8--0--7--0--5--0--7----|--8-8-8-8-8-8-8-8-7-7-7-7-5-5-5-5-|


  E  E  H.              S S S S S S S S S S S S S S S S  
---------------------|----------------------------------|
---------------------|----------------------------------|
---------------------|----------------------------------|
---------------------|----------------------------------|
--4------------------|----------5-5-5-5-4-4-4-4---------|
---------------------|--0-0-0-0-----------------7-7-7-7-|


  S S S S S S S S S S S S S S S S    S S S S S S S S S S S S S S S S  
----------------------------------|----------------------------------|
----------------------------------|----------------------------------|
----------------------------------|----------------------------------|
----------------------------------|----------------------------------|
----------------------------------|----------5-5-5-5-4-4-4-4---------|
--8-8-8-8-7-7-7-7-5-5-5-5-7-7-7-7-|--0-0-0-0-----------------7-7-7-7-|


  S S S S S S S S S S S S S S S S    S S S S S S S S S S S S S S S S  
----------------------------------|----------------------------------|
----------------------------------|----------------------------------|
----------------------------------|----------------------------------|
----------------------------------|----------------------------------|
----------------------------------|----------5-5-5-5-4-4-4-4---------|
--8-8-8-8-7-7-7-7-5-5-5-5-3-3-3-3-|--0-0-0-0-----------------7-7-7-7-|


  S S S S S S S S S S S S S S S S    S S S S S S S S S S S S S S S S  
----------------------------------|----------------------------------|
----------------------------------|----------------------------------|
----------------------------------|----------------------------------|
----------------------------------|----------------------------------|
----------------------------------|----------------------------------|
--8-8-8-8-7-7-7-7-5-5-5-5-7-7-7-7-|--8-8-8-8-8-8-8-8-7-7-7-7-5-5-5-5-|


  S S S S S S S S S S S S S S S S    S S S S S S S S S S S S S S S S  
----------------------------------|----------------------------------|
----------------------------------|----------------------------------|
----------------------------------|----------------------------------|
----------------------------------|----------------------------------|
--4-4-4-4-4-4-4-4-----------------|----------5-5-5-5-4-4-4-4---------|
------------------7-7-7-7-8-8-8-8-|--0-0-0-0-----------------7-7-7-7-|


  S S S S S S S S S S S S S S S S    S S S S S S S S S S S S S S S S  
----------------------------------|----------------------------------|
----------------------------------|----------------------------------|
----------------------------------|----------------------------------|
----------------------------------|----------------------------------|
----------------------------------|----------5-5-5-5-4-4-4-4---------|
--8-8-8-8-7-7-7-7-5-5-5-5-7-7-7-7-|--0-0-0-0-----------------7-7-7-7-|


  S S S S S S S S S S S S S S S S    S S S S S S S S S S S S S S S S  
----------------------------------|----------------------------------|
----------------------------------|----------------------------------|
----------------------------------|----------------------------------|
----------------------------------|----------------------------------|
----------------------------------|----------5-5-5-5-4-4-4-4---------|
--8-8-8-8-7-7-7-7-5-5-5-5-3-3-3-3-|--0-0-0-0-----------------7-7-7-7-|


  S S S S S S S S S S S S S S S S    S S S S S S S S S S S S S S S S  
----------------------------------|----------------------------------|
----------------------------------|----------------------------------|
----------------------------------|----------------------------------|
----------------------------------|----------------------------------|
----------------------------------|----------------------------------|
--8-8-8-8-7-7-7-7-5-5-5-5-7-7-7-7-|--8-8-8-8-8-8-8-8-7-7-7-7-5-5-5-5-|


  S S S S S S S S S S S S S S S S    W                   W                 
----------------------------------|-------------------|-------------------|
----------------------------------|-------------------|-------------------|
----------------------------------|-------------------|-------------------|
----------------------------------|--0----------------|--L----------------|
--4-4-4-4-4-4-4-4-----------------|--0----------------|--L----------------|
------------------7-7-7-7-8-8-8-8-|--0----------------|--L----------------|


  W                   W                   W                 
-------------------|-------------------|-------------------|
-------------------|-------------------|-------------------|
-------------------|-------------------|-------------------|
--0----------------|--L----------------|--3----------------|
--0----------------|--L----------------|--3----------------|
--0----------------|--L----------------|--3----------------|


  W                   W                   W                 
-------------------|-------------------|-------------------|
-------------------|-------------------|-------------------|
-------------------|-------------------|-------------------|
--L----------------|--2----------------|--L----------------|
--L----------------|--2----------------|--L----------------|
--L----------------|--2----------------|--L----------------|


  W                   W                   W                 
-------------------|-------------------|-------------------|
-------------------|-------------------|-------------------|
-------------------|-------------------|-------------------|
--0----------------|--L----------------|--0----------------|
--0----------------|--L----------------|--0----------------|
--0----------------|--L----------------|--0----------------|


  W                   W                   W                 
-------------------|-------------------|-------------------|
-------------------|-------------------|-------------------|
-------------------|-------------------|-------------------|
--L----------------|--3----------------|--L----------------|
--L----------------|--3----------------|--L----------------|
--L----------------|--3----------------|--L----------------|


                                               PM    PM        PM  
  W                   W                   Q    E  E  E  E   E  E   
-------------------|-------------------|--------------------------|
-------------------|-------------------|--------------------------|
-------------------|-------------------|--------------------------|
--5----------------|--L----------------|--------------------------|
--5----------------|--L----------------|--0-------8-----8s--7-----|
--5----------------|--L----------------|--0----0-----0---------0--|


       PM    PM        PM         PM    PM        PM  
  Q    E  E  E  E   E  E     Q    E  E  E  E   E  E   
--------------------------|--------------------------|
--------------------------|--------------------------|
--------------------------|--------------------------|
--------------------------|--------------------------|
--0-------8-----8s--7-----|--8-------8-----8s--7-----|
--0----0-----0---------0--|--8----8-----8---------8--|


       PM    PM        PM         PM    PM        PM  
  Q    E  E  E  E   E  E     Q    E  E  E  E   E  E   
--------------------------|--------------------------|
--------------------------|--------------------------|
--------------------------|--------------------------|
--------------------------|--------------------------|
--7-------7-----7s--8-----|--0-------8-----8s--7-----|
--7----7-----7---------7--|--0----0-----0---------0--|


       PM    PM        PM         PM    PM        PM  
  Q    E  E  E  E   E  E     Q    E  E  E  E   E  E   
--------------------------|--------------------------|
--------------------------|--------------------------|
--------------------------|--------------------------|
--------------------------|--------------------------|
--0-------8-----8s--7-----|--8-------8-----8s--7-----|
--0----0-----0---------0--|--8----8-----8---------8--|


         PM     PM          PM         PM    PM        PM  
   Q     E  E   E  E    E   E     Q    E  E  E  E   E  E   
-------------------------------|--------------------------|
-------------------------------|--------------------------|
-------------------------------|--------------------------|
-------------------------------|--------------------------|
--10--------8------8s--10------|--0-------8-----8s--7-----|
--10----10-----10----------10--|--0----0-----0---------0--|


       PM    PM        PM         PM    PM        PM  
  Q    E  E  E  E   E  E     Q    E  E  E  E   E  E   
--------------------------|--------------------------|
--------------------------|--------------------------|
--------------------------|--------------------------|
--------------------------|--------------------------|
--0-------8-----8s--7-----|--8-------8-----8s--7-----|
--0----0-----0---------0--|--8----8-----8---------8--|


       PM    PM        PM         PM    PM        PM  
  Q    E  E  E  E   E  E     Q    E  E  E  E   E  E   
--------------------------|--------------------------|
--------------------------|--------------------------|
--------------------------|--------------------------|
--------------------------|--------------------------|
--7-------7-----7s--8-----|--0-------8-----8s--7-----|
--7----7-----7---------7--|--0----0-----0---------0--|


       PM    PM        PM         PM    PM        PM  
  Q    E  E  E  E   E  E     Q    E  E  E  E   E  E   
--------------------------|--------------------------|
--------------------------|--------------------------|
--------------------------|--------------------------|
--------------------------|--------------------------|
--0-------8-----8s--7-----|--8-------8-----8s--7-----|
--0----0-----0---------0--|--8----8-----8---------8--|


         PM     PM          PM         PM    PM            
   Q     E  E   E  E    E   E     Q    E  E  E  E  E   E   
-------------------------------|--------------------------|
-------------------------------|--------------------------|
-------------------------------|--------------------------|
-------------------------------|--------------------------|
--10--------8------8s--10------|--0-------8-----7--8--10--|
--10----10-----10----------10--|--0----0-----0------------|


                                   PM    PM        PM  
  Q    E   E  E   E  E  E     Q    E  E  E  E   E  E   
---------------------------|--------------------------|
---------------------------|--------------------------|
---------------------------|--------------------------|
--8----7------7------------|--------------------------|
----------10-----10--8--7--|--8-------8-----8s--7-----|
---------------------------|--8----8-----8---------8--|


       PM    PM        PM         PM    PM            
  Q    E  E  E  E   E  E     Q    E  E  E  E  E   E   
--------------------------|--------------------------|
--------------------------|--------------------------|
--------------------------|--------------------------|
--------------------------|--------------------------|
--7-------7-----7s--8-----|--0-------8-----7--8--10--|
--7----7-----7---------7--|--0----0-----0------------|


                                   PM    PM        PM  
  Q    E   E  E   E  E  E     Q    E  E  E  E   E  E   
---------------------------|--------------------------|
---------------------------|--------------------------|
---------------------------|--------------------------|
--8----7------7------------|--------------------------|
----------10-----10--8--7--|--8-------8-----8s--7-----|
---------------------------|--8----8-----8---------8--|


         PM     PM          PM         PM    PM            
   Q     E  E   E  E    E   E     Q    E  E  E  E  E   E   
-------------------------------|--------------------------|
-------------------------------|--------------------------|
-------------------------------|--------------------------|
-------------------------------|--------------------------|
--10--------8------8s--10------|--0-------8-----7--8--10--|
--10----10-----10----------10--|--0----0-----0------------|


                                   PM    PM        PM  
  Q    E   E  E   E  E  E     Q    E  E  E  E   E  E   
---------------------------|--------------------------|
---------------------------|--------------------------|
---------------------------|--------------------------|
--8----7------7------------|--------------------------|
----------10-----10--8--7--|--8-------8-----8s--7-----|
---------------------------|--8----8-----8---------8--|


       PM    PM        PM         PM    PM            
  Q    E  E  E  E   E  E     Q    E  E  E  E  E   E   
--------------------------|--------------------------|
--------------------------|--------------------------|
--------------------------|--------------------------|
--------------------------|--------------------------|
--7-------7-----7s--8-----|--0-------8-----7--8--10--|
--7----7-----7---------7--|--0----0-----0------------|


                                   PM    PM        PM  
  Q    E   E  E   E  E  E     Q    E  E  E  E   E  E   
---------------------------|--------------------------|
---------------------------|--------------------------|
---------------------------|--------------------------|
--8----7------7------------|--------------------------|
----------10-----10--8--7--|--8-------8-----8s--7-----|
---------------------------|--8----8-----8---------8--|


         PM     PM          PM    PM    PM PM              
   Q     E  E   E  E    E   E     E  E  E  E  E  E  E  E   
-------------------------------|--------------------------|
-------------------------------|--------------------------|
-------------------------------|--------------------------|
-------------------------------|--------------------------|
--10--------8------8s--10------|--0--L--0--0--L--L--L--L--|
--10----10-----10----------10--|--0--L--0--0--L--L--L--L--|


                    PM PM       PM    PM PM           
  E  E  E  E  E  E  E  E     E  E  E  E  E  E  E  E   
--------------------------|--------------------------|
--------------------------|--------------------------|
--------------------------|--------------------------|
--------------------------|--------------------------|
--L--L--L--L--L--L--0--0--|--L--0--L--0--0--L--L--L--|
--L--L--L--L--L--L--0--0--|--L--0--L--0--0--L--L--L--|


  PM    PM PM                PM    PM PM              
  E  E  E  E  E  E  E  E     E  E  E  E  E  E  E  E   
--------------------------|--------------------------|
--------------------------|--------------------------|
--------------------------|--------------------------|
--------------------------|--------------------------|
--0--L--0--0--L--L--L--L--|--0--L--0--0--L--L--L--L--|
--0--L--0--0--L--L--L--L--|--0--L--0--0--L--L--L--L--|


                    PM PM       PM    PM PM           
  E  E  E  E  E  E  E  E     E  E  E  E  E  E  E  E   
--------------------------|--------------------------|
--------------------------|--------------------------|
--------------------------|--------------------------|
--------------------------|--------------------------|
--L--L--L--L--L--L--0--0--|--L--0--L--0--0--L--L--L--|
--L--L--L--L--L--L--0--0--|--L--0--L--0--0--L--L--L--|


  PM    PM PM                PM PM                    
  E  E  E  E  E  E  E  E     E  E  E  E  E  E  E  E   
--------------------------|--------------------------|
--------------------------|--------------------------|
--------------------------|--------------------------|
--------------------------|--------------------------|
--0--L--0--0--L--L--L--L--|--0--0--------------------|
--0--L--0--0--L--L--L--L--|--0--0--------------------|


                             PM PM                    
  E  E  E  E  E  E  E  E     E  E  E  E  E  E  E  E   
--------------------------|--------------------------|
--------------------------|--------------------------|
--------------------------|--------------------------|
--------------------------|--------------------------|
--------------------------|--0--0--------------------|
--------------------------|--0--0--------------------|


              PM PM          PM PM                    
  E  E  E  E  E  E  E  E     E  E  E  E  E  E  E  E   
--------------------------|--------------------------|
--------------------------|--------------------------|
--------------------------|--------------------------|
--------------------------|--------------------------|
--------------0--0--------|--0--0--------------------|
--------------0--0--------|--0--0--------------------|


              PM PM          PM PM                    
  E  E  E  E  E  E  E  E     E  E  E  E  E  E  E  E   
--------------------------|--------------------------|
--------------------------|--------------------------|
--------------------------|--------------------------|
--------------------------|--------------------------|
--------------0--0--------|--0--0--------------------|
--------------0--0--------|--0--0--------------------|


              PM PM          PM PM                    
  E  E  E  E  E  E  E  E     E  E  E  E  E  E  E  E   
--------------------------|--------------------------|
--------------------------|--------------------------|
--------------------------|--------------------------|
--------------------------|--------------------------|
--------------0--0--------|--0--0--------------------|
--------------0--0--------|--0--0--------------------|


                             PM PM                    
  E  E  E  E  E  E  E  E     E  E  E  E  E  E  E  E   
--------------------------|--------------------------|
--------------------------|--------------------------|
--------------------------|--------------------------|
--------------------------|--------------------------|
--------------------------|--0--0--------------------|
--------------------------|--0--0--------------------|


              PM PM          PM PM                    
  E  E  E  E  E  E  E  E     E  E  E  E  E  E  E  E   
--------------------------|--------------------------|
--------------------------|--------------------------|
--------------------------|--------------------------|
--------------------------|--------------------------|
--------------0--0--------|--0--0--------------------|
--------------0--0--------|--0--0--------------------|


              PM PM          PM PM                                
  E  E  E  E  E  E  E  E     E  E  H.                             
--------------------------|---------------------|---------------||
--------------------------|---------------------|---------------||
--------------------------|---------------------|---------------||
--------------------------|---------------------|---------------||
--------------0--0--------|--0--0---------------|---------------||
--------------0--0--------|--0--0---------------|---------------||

END



Duration Legend
---------------
W - whole
H - half
Q - quarter
E - 8th
S - 16th
T - 32nd
X - 64th



Tablature Legend
----------------
L - tied note
h - hammer on
p - pull off
b - bend
S - shift slide
s - legato slide
/ -  slide into from below or out of upwards
\ -  slide into from above or out of downwards
~ - vibrato
W - wide vibrato
tr - trill
TP - tremolo picking
Tap to rate this tab
 
# A B C D E F G H I J K L M N O P Q R S T U V W X Y Z