Song name
# A B C D E F G H I J K L M N O P Q R S T U V W X Y Z

Postmortem Promises - Self Righteous tab

-------------------------------------------------------------------------------
			                     Self-Righteous - Postmortem Promises
-------------------------------------------------------------------------------
Tabbed by: Alain Cloutier
Email: six_inch_of_bl0od@hotmail.com

Tuning: A,E,A,D,F#,B


Guitar 1

      PM PM PM PM PM PM PM PM                                             
      E  E  E  E  E  E  E  E     S  S S  S S  S S  S S  S S  S S  S S  S  
B ||--------------------------|------------------------------------------|
F#||--------------------------|------------------------------------------|
D ||--------------------------|------------------------------------------|
A ||--------------------------|------------------------------------------|
E ||--1--0--1--3--4--3--1--0--|-------6h-9------5h-8------4h-7------3h-6-|
A ||--1--0--1--3--4--3--1--0--|--6h-9------5h-8------4h-7------3h-6------|


  PM PM PM PM                        PM PM           PM PM            
  E  E  E  E  S  S S  S S  S S  S    E  E  S  S S  S E  E  S  S S  S  
----------------------------------|----------------------------------|
----------------------------------|----------------------------------|
----------------------------------|----------------------------------|
----------------------------------|----------------------------------|
--1--0--1--3-------6h-9------5h-8-|--4--3-------5h-8-3--1-------4h-7-|
--1--0--1--3--6h-9------5h-8------|--4--3--5h-8------3--1--4h-7------|


  PM PM PM PM PM PM PM PM                                             
  E  E  E  E  E  E  E  E     S  S S  S S  S S  S S  S S  S S  S S  S  
--------------------------|------------------------------------------|
--------------------------|------------------------------------------|
--------------------------|------------------------------------------|
--------------------------|------------------------------------------|
--1--0--1--3--4--3--1--0--|-------6h-9------5h-8------4h-7------3h-6-|
--1--0--1--3--4--3--1--0--|--6h-9------5h-8------4h-7------3h-6------|


  PM PM PM PM                        PM PM           PM PM            
  E  E  E  E  S  S S  S S  S S  S    E  E  S  S S  S E  E  S  S S  S  
----------------------------------|----------------------------------|
----------------------------------|----------------------------------|
----------------------------------|----------------------------------|
----------------------------------|----------------------------------|
--1--0--1--3-------6h-9------5h-8-|--4--3-------5h-8-3--1-------4h-7-|
--1--0--1--3--6h-9------5h-8------|--4--3--5h-8------3--1--4h-7------|


  PM PM PM PM PM PM PM PM                                             
  E  E  E  E  E  E  E  E     S  S S  S S  S S  S S  S S  S S  S S  S  
--------------------------|------------------------------------------|
--------------------------|------------------------------------------|
--------------------------|------------------------------------------|
--------------------------|------------------------------------------|
--1--0--1--3--4--3--1--0--|-------6h-9------5h-8------4h-7------3h-6-|
--1--0--1--3--4--3--1--0--|--6h-9------5h-8------4h-7------3h-6------|


  PM PM PM PM                        PM PM           PM PM            
  E  E  E  E  S  S S  S S  S S  S    E  E  S  S S  S E  E  S  S S  S  
----------------------------------|----------------------------------|
----------------------------------|----------------------------------|
----------------------------------|----------------------------------|
----------------------------------|----------------------------------|
--1--0--1--3-------6h-9------5h-8-|--4--3-------5h-8-3--1-------4h-7-|
--1--0--1--3--6h-9------5h-8------|--4--3--5h-8------3--1--4h-7------|


  PM PM PM PM PM PM PM PM                                             
  E  E  E  E  E  E  E  E     S  S S  S S  S S  S S  S S  S S  S S  S  
--------------------------|------------------------------------------|
--------------------------|------------------------------------------|
--------------------------|------------------------------------------|
--------------------------|------------------------------------------|
--1--0--1--3--4--3--1--0--|-------6h-9------5h-8------4h-7------3h-6-|
--1--0--1--3--4--3--1--0--|--6h-9------5h-8------4h-7------3h-6------|


  PM PM PM PM                        PM PM      PM PM               
  E  E  E  E  S  S S  S S  S S  S    E  E  Q    E  E  Q             
----------------------------------|------------------------|-------|
----------------------------------|------------------------|-------|
----------------------------------|------------------------|-------|
----------------------------------|------------------------|-------|
--1--0--1--3-------6h-9------5h-8-|--4--3-------3--1-------|-------|
--1--0--1--3--6h-9------5h-8------|--4--3-------3--1-------|-------|


  T T T T T T T T T T T T T T T T T T T T T T T T T T T T T T T T  
------------------------------------------------------------------|
------------------------------------------------------------------|
------------------------------------------------------------------|
------------------------------------------------------------------|
------------------------------------------------------------------|
--1-1-1-1-0-0-0-0-1-1-1-1-0-0-0-0-5-5-5-5-4-4-4-4-1-1-1-1-0-0-0-0-|


  T T T T T T T T T T T T T T T T T T T T T T T T T T T T T T T T  
------------------------------------------------------------------|
------------------------------------------------------------------|
------------------------------------------------------------------|
------------------------------------------------------------------|
------------------5-5-5-5-4-4-4-4-1-1-1-1-0-0-0-0-----------------|
--1-1-1-1-0-0-0-0---------------------------------5-5-5-5-4-4-4-4-|


  T T T T T T T T T T T T T T T T T T T T T T T T T T T T T T T T  
------------------------------------------------------------------|
------------------------------------------------------------------|
------------------------------------------------------------------|
------------------------------------------------------------------|
------------------------------------------------------------------|
--1-1-1-1-0-0-0-0-1-1-1-1-0-0-0-0-5-5-5-5-4-4-4-4-1-1-1-1-0-0-0-0-|


  T T T T T T T T T T T T T T T T T T T T T T T T T T T T T T T T  
------------------------------------------------------------------|
------------------------------------------------------------------|
------------------------------------------------------------------|
------------------------------------------------------------------|
------------------5-5-5-5-4-4-4-4-1-1-1-1-0-0-0-0-8-8-8-8-7-7-7-7-|
--1-1-1-1-0-0-0-0-------------------------------------------------|


  T T T T T T T T T T T T T T T T T T T T T T T T T T T T T T T T  
------------------------------------------------------------------|
------------------------------------------------------------------|
------------------------------------------------------------------|
------------------------------------------------------------------|
------------------------------------------------------------------|
--1-1-1-1-0-0-0-0-1-1-1-1-0-0-0-0-5-5-5-5-4-4-4-4-1-1-1-1-0-0-0-0-|


  T T T T T T T T T T T T T T T T T T T T T T T T T T T T T T T T  
------------------------------------------------------------------|
------------------------------------------------------------------|
------------------------------------------------------------------|
------------------------------------------------------------------|
------------------5-5-5-5-4-4-4-4-1-1-1-1-0-0-0-0-----------------|
--1-1-1-1-0-0-0-0---------------------------------5-5-5-5-4-4-4-4-|


  T T T T T T T T T T T T T T T T T T T T T T T T T T T T T T T T  
------------------------------------------------------------------|
------------------------------------------------------------------|
------------------------------------------------------------------|
------------------------------------------------------------------|
------------------------------------------------------------------|
--1-1-1-1-0-0-0-0-1-1-1-1-0-0-0-0-5-5-5-5-4-4-4-4-1-1-1-1-0-0-0-0-|


  T T T T T T T T T T T T T T T T T T T T T T T T T T T T T T T T  
------------------------------------------------------------------|
------------------------------------------------------------------|
------------------------------------------------------------------|
------------------------------------------------------------------|
------------------5-5-5-5-4-4-4-4-1-1-1-1-0-0-0-0-8-8-8-8-7-7-7-7-|
--1-1-1-1-0-0-0-0-------------------------------------------------|


  T T T T T T T T T T T T T T T T T T T T T T T T T T T T T T T T  
------------------------------------------------------------------|
------------------------------------------------------------------|
------------------------------------------------------------------|
------------------------------------------------------------------|
------------------------------------------------------------------|
--1-1-1-1-0-0-0-0-1-1-1-1-0-0-0-0-5-5-5-5-4-4-4-4-1-1-1-1-0-0-0-0-|


  T T T T T T T T T T T T T T T T T T T T T T T T T T T T T T T T  
------------------------------------------------------------------|
------------------------------------------------------------------|
------------------------------------------------------------------|
------------------------------------------------------------------|
------------------5-5-5-5-4-4-4-4-1-1-1-1-0-0-0-0-----------------|
--1-1-1-1-0-0-0-0---------------------------------5-5-5-5-4-4-4-4-|


  T T T T T T T T T T T T T T T T T T T T T T T T T T T T T T T T  
------------------------------------------------------------------|
------------------------------------------------------------------|
------------------------------------------------------------------|
------------------------------------------------------------------|
------------------------------------------------------------------|
--1-1-1-1-0-0-0-0-1-1-1-1-0-0-0-0-5-5-5-5-4-4-4-4-1-1-1-1-0-0-0-0-|


  T T T T T T T T T T T T T T T T T T T T T T T T T T T T T T T T  
------------------------------------------------------------------|
------------------------------------------------------------------|
------------------------------------------------------------------|
------------------------------------------------------------------|
------------------5-5-5-5-4-4-4-4-1-1-1-1-0-0-0-0-8-8-8-8-7-7-7-7-|
--1-1-1-1-0-0-0-0-------------------------------------------------|


  T T T T T T T T T T T T T T T T T T T T T T T T T T T T T T T T  
------------------------------------------------------------------|
------------------------------------------------------------------|
------------------------------------------------------------------|
------------------------------------------------------------------|
------------------------------------------------------------------|
--1-1-1-1-0-0-0-0-1-1-1-1-0-0-0-0-5-5-5-5-4-4-4-4-1-1-1-1-0-0-0-0-|


  T T T T T T T T T T T T T T T T T T T T T T T T T T T T T T T T  
------------------------------------------------------------------|
------------------------------------------------------------------|
------------------------------------------------------------------|
------------------------------------------------------------------|
------------------5-5-5-5-4-4-4-4-1-1-1-1-0-0-0-0-----------------|
--1-1-1-1-0-0-0-0---------------------------------5-5-5-5-4-4-4-4-|


  T T T T T T T T T T T T T T T T T T T T T T T T T T T T T T T T  
------------------------------------------------------------------|
------------------------------------------------------------------|
------------------------------------------------------------------|
------------------------------------------------------------------|
------------------------------------------------------------------|
--1-1-1-1-0-0-0-0-1-1-1-1-0-0-0-0-5-5-5-5-4-4-4-4-1-1-1-1-0-0-0-0-|


                              PM PM PM PM PM PM PM PM PM  
  Q    Q    Q    Q       Q    S  S  E  S  S  E  S  S  E   
----------------------|----------------------------------|
----------------------|----------------------------------|
----------------------|----------------------------------|
----------------------|----------------------------------|
--1----5----4----1----|--0-------------------------------|
--1----5----4----1----|--0----0--0--0--0--0--0--0--0--0--|


       PM PM PM      PM PM PM         PM PM PM PM PM PM PM PM PM  
  Q    S  S  E  Q    S  S  E     Q    S  S  E  S  S  E  S  S  E   
------------------------------|----------------------------------|
------------------------------|----------------------------------|
------------------------------|----------------------------------|
------------------------------|----------------------------------|
--5-------------4-------------|--1-------------------------------|
-------0--0--0-------0--0--0--|-------8--8--8--8--8--8--8--8--8--|


       PM PM PM      PM PM PM         PM PM PM PM PM PM PM PM PM  
  Q    S  S  E  Q    S  S  E     Q    S  S  E  S  S  E  S  S  E   
------------------------------|----------------------------------|
------------------------------|----------------------------------|
------------------------------|----------------------------------|
------------------------------|----------------------------------|
--4-------------1-------------|--0-------------------------------|
-------8--8--8-------8--8--8--|--0----0--0--0--0--0--0--0--0--0--|


       PM PM PM      PM PM PM         PM PM PM PM PM PM PM PM PM  
  Q    S  S  E  Q    S  S  E     Q    S  S  E  S  S  E  S  S  E   
------------------------------|----------------------------------|
------------------------------|----------------------------------|
------------------------------|----------------------------------|
------------------------------|----------------------------------|
--5-------------4-------------|--1-------------------------------|
-------0--0--0-------0--0--0--|-------8--8--8--8--8--8--8--8--8--|


       PM PM PM      PM PM PM         PM PM PM PM PM PM PM PM PM  
  Q    S  S  E  Q    S  S  E     Q    S  S  E  S  S  E  S  S  E   
------------------------------|----------------------------------|
------------------------------|----------------------------------|
------------------------------|----------------------------------|
------------------------------|----------------------------------|
--4-------------1-------------|--0-------------------------------|
-------8--8--8-------8--8--8--|--0----0--0--0--0--0--0--0--0--0--|


       PM PM PM      PM PM PM         PM PM PM PM PM PM PM PM PM  
  Q    S  S  E  Q    S  S  E     Q    S  S  E  S  S  E  S  S  E   
------------------------------|----------------------------------|
------------------------------|----------------------------------|
------------------------------|----------------------------------|
------------------------------|----------------------------------|
--5-------------4-------------|--1-------------------------------|
-------0--0--0-------0--0--0--|-------8--8--8--8--8--8--8--8--8--|


       PM PM PM      PM PM PM         PM PM PM PM PM PM PM PM PM  
  Q    S  S  E  Q    S  S  E     Q    S  S  E  S  S  E  S  S  E   
------------------------------|----------------------------------|
------------------------------|----------------------------------|
------------------------------|----------------------------------|
------------------------------|----------------------------------|
--4-------------1-------------|--0-------------------------------|
-------8--8--8-------8--8--8--|--0----0--0--0--0--0--0--0--0--0--|


       PM PM PM      PM PM PM         PM PM PM PM PM PM PM PM PM  
  Q    S  S  E  Q    S  S  E     Q    S  S  E  S  S  E  S  S  E   
------------------------------|----------------------------------|
------------------------------|----------------------------------|
------------------------------|----------------------------------|
------------------------------|----------------------------------|
--5-------------4-------------|--1-------------------------------|
-------0--0--0-------0--0--0--|-------8--8--8--8--8--8--8--8--8--|


       PM PM PM      PM PM PM         PM PM PM PM PM PM PM PM PM  
  Q    S  S  E  Q    S  S  E     Q    S  S  E  S  S  E  S  S  E   
------------------------------|----------------------------------|
------------------------------|----------------------------------|
------------------------------|----------------------------------|
------------------------------|----------------------------------|
--4-------------1-------------|--0-------------------------------|
-------8--8--8-------8--8--8--|--0----0--0--0--0--0--0--0--0--0--|


       PM PM PM      PM PM PM         PM PM PM PM PM PM PM PM PM  
  Q    S  S  E  Q    S  S  E     Q    S  S  E  S  S  E  S  S  E   
------------------------------|----------------------------------|
------------------------------|----------------------------------|
------------------------------|----------------------------------|
------------------------------|----------------------------------|
--5-------------4-------------|--1-------------------------------|
-------0--0--0-------0--0--0--|-------8--8--8--8--8--8--8--8--8--|


       PM PM PM      PM PM PM         PM PM PM PM PM PM PM PM PM  
  Q    S  S  E  Q    S  S  E     Q    S  S  E  S  S  E  S  S  E   
------------------------------|----------------------------------|
------------------------------|----------------------------------|
------------------------------|----------------------------------|
------------------------------|----------------------------------|
--4-------------1-------------|--0-------------------------------|
-------8--8--8-------8--8--8--|--0----0--0--0--0--0--0--0--0--0--|


       PM PM PM      PM PM PM         PM PM PM PM PM PM PM PM PM  
  Q    S  S  E  Q    S  S  E     Q    S  S  E  S  S  E  S  S  E   
------------------------------|----------------------------------|
------------------------------|----------------------------------|
------------------------------|----------------------------------|
------------------------------|----------------------------------|
--5-------------4-------------|--1-------------------------------|
-------0--0--0-------0--0--0--|-------8--8--8--8--8--8--8--8--8--|


       PM PM PM      PM PM PM                                           
  Q    S  S  E  Q    S  S  E     W                   H        H         
------------------------------|-------------------|--------------------|
------------------------------|-------------------|--------------------|
------------------------------|-------------------|--------------------|
------------------------------|-------------------|--------------------|
--4-------------1-------------|--0----------------|--5--------4--------|
-------8--8--8-------8--8--8--|--0----------------|--5--------4--------|


  W                   H        H           W                 
-------------------|--------------------|-------------------|
-------------------|--------------------|-------------------|
-------------------|--------------------|-------------------|
-------------------|--------------------|--7----------------|
--1----------------|--4--------1--------|-------------------|
--1----------------|--4--------1--------|-------------------|


   H         H           W                   H        H         
----------------------|-------------------|--------------------|
----------------------|-------------------|--------------------|
----------------------|-------------------|--------------------|
--12--------11--------|--8----------------|--7--------5--------|
----------------------|-------------------|--------------------|
----------------------|-------------------|--------------------|


  W                   H        H           W                 
-------------------|--------------------|-------------------|
-------------------|--------------------|-------------------|
-------------------|--------------------|-------------------|
--3----------------|--3--------2--------|--0----------------|
-------------------|--------------------|-------------------|
-------------------|--------------------|-------------------|


  H        H                                                               
--------------------|-----------|-----------|----|----|----|----|----|----|
--------------------|-----------|-----------|----|----|----|----|----|----|
--------------------|-----------|-----------|----|----|----|----|----|----|
--2--------3--------|-----------|-----------|----|----|----|----|----|----|
--------------------|-----------|-----------|----|----|----|----|----|----|
--------------------|-----------|-----------|----|----|----|----|----|----|


                                          W                 
----|----|----|----|----|----|----|----|-------------------|
----|----|----|----|----|----|----|----|-------------------|
----|----|----|----|----|----|----|----|-------------------|
----|----|----|----|----|----|----|----|-------------------|
----|----|----|----|----|----|----|----|--0----------------|
----|----|----|----|----|----|----|----|--0----------------|


  H        H           W                   H        H         
--------------------|-------------------|--------------------|
--------------------|-------------------|--------------------|
--------------------|-------------------|--------------------|
--------------------|-------------------|--------------------|
--L--------8--------|--0----------------|--L--------8--------|
--L--------8--------|--0----------------|--L--------8--------|


  W                   H        H           W                 
-------------------|--------------------|-------------------|
-------------------|--------------------|-------------------|
-------------------|--------------------|-------------------|
-------------------|--------------------|-------------------|
--0----------------|--L--------8--------|--0----------------|
--0----------------|--L--------8--------|--0----------------|


  H        H           W                   W                 
--------------------|-------------------|-------------------|
--------------------|-------------------|-------------------|
--------------------|-------------------|-------------------|
--------------------|-------------------|-------------------|
--L--------8--------|--L----------------|--L----------------|
--L--------8--------|--L----------------|--L----------------|


                                            PM   PM   PM   PM    
  W                    W                    Q    Q    Q    Q     
-------------------|---------------------|----------------------|
-------------------|---------------------|----------------------|
-------------------|---------------------|----------------------|
-------------------|---------------------|----------------------|
--L----------------|--12\----------------|--1----0----1----0----|
--L----------------|--12\----------------|--1----0----1----0----|


  PM   PM   PM   PM      PM   PM   PM   PM                             
  Q    Q    Q    Q       Q    Q    Q    Q       E  E  Q    E  E  Q     
----------------------|----------------------|------------------------|
----------------------|----------------------|------------------------|
----------------------|----------------------|------------------------|
----------------------|----------------------|------------------------|
--5----0----4----0----|--1----0----1----0----|--4--4--4----5--5--5----|
--5----0----4----0----|--1----0----1----0----|--4--4--4----5--5--5----|


  PM   PM   PM   PM      PM   PM   PM   PM      PM   PM   PM   PM    
  Q    Q    Q    Q       Q    Q    Q    Q       Q    Q    Q    Q     
----------------------|----------------------|----------------------|
----------------------|----------------------|----------------------|
----------------------|----------------------|----------------------|
----------------------|----------------------|----------------------|
--1----0----1----0----|--5----0----4----0----|--1----0----1----0----|
--1----0----1----0----|--5----0----4----0----|--1----0----1----0----|


                             PM   PM   PM   PM      PM   PM   PM   PM    
  E  E  E  E  E  E  E  E     Q    Q    Q    Q       Q    Q    Q    Q     
--------------------------|----------------------|----------------------|
--------------------------|----------------------|----------------------|
--------------------------|----------------------|----------------------|
--------------------------|----------------------|----------------------|
--5--5--5--5--4--4--4--4--|--1----0----1----0----|--5----0----4----0----|
--5--5--5--5--4--4--4--4--|--1----0----1----0----|--5----0----4----0----|


  PM   PM   PM   PM                                 PM   PM   PM   PM    
  Q    Q    Q    Q       E  E  E  E  E  E  E  E     Q    Q    Q    Q     
----------------------|--------------------------|----------------------|
----------------------|--------------------------|----------------------|
----------------------|--------------------------|----------------------|
----------------------|--------------------------|----------------------|
--1----0----1----0----|--4--4--4--4--5--5--5--5--|--1----0----1----0----|
--1----0----1----0----|--4--4--4--4--5--5--5--5--|--1----0----1----0----|


  PM   PM   PM   PM      PM   PM   PM   PM                               
  Q    Q    Q    Q       Q    Q    Q    Q       E  E  E  E  E  E  E  E   
----------------------|----------------------|--------------------------|
----------------------|----------------------|--------------------------|
----------------------|----------------------|--------------------------|
----------------------|----------------------|--------------------------|
--5----0----4----0----|--1----0----1----0----|--5--5--5--5--4-----------|
--5----0----4----0----|--1----0----1----0----|--5--5--5--5--4-----------|


  PM PM PM PM PM PM PM PM                                             
  E  E  E  E  E  E  E  E     S  S S  S S  S S  S S  S S  S S  S S  S  
--------------------------|------------------------------------------|
--------------------------|------------------------------------------|
--------------------------|------------------------------------------|
--------------------------|------------------------------------------|
--1--0--1--3--4--3--1--0--|-------6h-9------5h-8------4h-7------3h-6-|
--1--0--1--3--4--3--1--0--|--6h-9------5h-8------4h-7------3h-6------|


  PM PM PM PM                        PM PM           PM PM            
  E  E  E  E  S  S S  S S  S S  S    E  E  S  S S  S E  E  S  S S  S  
----------------------------------|----------------------------------|
----------------------------------|----------------------------------|
----------------------------------|----------------------------------|
----------------------------------|----------------------------------|
--1--0--1--3-------6h-9------5h-8-|--4--3-------5h-8-3--1-------4h-7-|
--1--0--1--3--6h-9------5h-8------|--4--3--5h-8------3--1--4h-7------|


  PM PM PM PM PM PM PM PM                                             
  E  E  E  E  E  E  E  E     S  S S  S S  S S  S S  S S  S S  S S  S  
--------------------------|------------------------------------------|
--------------------------|------------------------------------------|
--------------------------|------------------------------------------|
--------------------------|------------------------------------------|
--1--0--1--3--4--3--1--0--|-------6h-9------5h-8------4h-7------3h-6-|
--1--0--1--3--4--3--1--0--|--6h-9------5h-8------4h-7------3h-6------|


  PM PM PM PM                        PM PM           PM PM            
  E  E  E  E  S  S S  S S  S S  S    E  E  S  S S  S E  E  S  S S  S  
----------------------------------|----------------------------------|
----------------------------------|----------------------------------|
----------------------------------|----------------------------------|
----------------------------------|----------------------------------|
--1--0--1--3-------6h-9------5h-8-|--4--3-------5h-8-3--1-------4h-7-|
--1--0--1--3--6h-9------5h-8------|--4--3--5h-8------3--1--4h-7------|


  PM PM PM PM PM PM PM PM                                             
  E  E  E  E  E  E  E  E     S  S S  S S  S S  S S  S S  S S  S S  S  
--------------------------|------------------------------------------|
--------------------------|------------------------------------------|
--------------------------|------------------------------------------|
--------------------------|------------------------------------------|
--1--0--1--3--4--3--1--0--|-------6h-9------5h-8------4h-7------3h-6-|
--1--0--1--3--4--3--1--0--|--6h-9------5h-8------4h-7------3h-6------|


  PM PM PM PM                        PM PM      PM PM               
  E  E  E  E  S  S S  S S  S S  S    E  E  Q    E  E  Q             
----------------------------------|------------------------|-------|
----------------------------------|------------------------|-------|
----------------------------------|------------------------|-------|
----------------------------------|------------------------|-------|
--1--0--1--3-------6h-9------5h-8-|--4--3-------3--1-------|-------|
--1--0--1--3--6h-9------5h-8------|--4--3-------3--1-------|-------|


  PM PM PM PM PM PM PM PM                 PM PM PM PM       
  E  E  S  S  E  S  S  E  Q       Q    E  E  S  S  E  Q     
-------------------------------|---------------------------|
-------------------------------|---------------------------|
-------------------------------|---------------------------|
-------------------------------|---------------------------|
--0--0--0--0--0--0--0--0-------|----------0--0--0--0-------|
--0--0--0--0--0--0--0--0-------|----------0--0--0--0-------|


  PM PM PM PM PM PM PM PM       
  E  E  S  S  E  S  S  E  Q     
-------------------------------|
-------------------------------|
-------------------------------|
-------------------------------|
--0--0--0--0--0--0--0--0-------|
--0--0--0--0--0--0--0--0-------|


  S  S S  S S  S S  S S  S S  S S   S S  S  
-------------------------------------------|
-------------------------------------------|
-------------------------------------------|
-------------------------------------------|
-------3h-6------4h-7------5h-8-------6h-9-|
--4h-7------5h-8------6h-9------7h-10------|


  PM PM PM PM PM PM PM PM                 PM PM PM PM       
  E  E  S  S  E  S  S  E  Q       Q    E  E  S  S  E  Q     
-------------------------------|---------------------------|
-------------------------------|---------------------------|
-------------------------------|---------------------------|
-------------------------------|---------------------------|
--0--0--0--0--0--0--0--0-------|----------0--0--0--0-------|
--0--0--0--0--0--0--0--0-------|----------0--0--0--0-------|


  PM PM PM PM PM PM PM PM                             
  E  E  S  S  E  S  S  E  Q       Q.     Q.     Q     
-------------------------------|---------------------|
-------------------------------|---------------------|
-------------------------------|---------------------|
-------------------------------|---------------------|
--0--0--0--0--0--0--0--0-------|--4------5------1----|
--0--0--0--0--0--0--0--0-------|--4------5------1----|


  PM PM PM PM PM PM PM PM                 PM PM PM PM       
  E  E  S  S  E  S  S  E  Q       Q    E  E  S  S  E  Q     
-------------------------------|---------------------------|
-------------------------------|---------------------------|
-------------------------------|---------------------------|
-------------------------------|---------------------------|
--0--0--0--0--0--0--0--0-------|----------0--0--0--0-------|
--0--0--0--0--0--0--0--0-------|----------0--0--0--0-------|


  PM PM PM PM PM PM PM PM       
  E  E  S  S  E  S  S  E  Q     
-------------------------------|
-------------------------------|
-------------------------------|
-------------------------------|
--0--0--0--0--0--0--0--0-------|
--0--0--0--0--0--0--0--0-------|


  S  S S  S S  S S  S S  S S  S S   S S  S  
-------------------------------------------|
-------------------------------------------|
-------------------------------------------|
-------------------------------------------|
-------3h-6------4h-7------5h-8-------6h-9-|
--4h-7------5h-8------6h-9------7h-10------|


  PM PM PM PM PM PM PM PM                 PM PM PM PM       
  E  E  S  S  E  S  S  E  Q       Q    E  E  S  S  E  Q     
-------------------------------|---------------------------|
-------------------------------|---------------------------|
-------------------------------|---------------------------|
-------------------------------|---------------------------|
--0--0--0--0--0--0--0--0-------|----------0--0--0--0-------|
--0--0--0--0--0--0--0--0-------|----------0--0--0--0-------|


  PM PM PM PM PM PM PM PM         PM     PM     PM    
  E  E  S  S  E  S  S  E  Q       Q.     Q.     Q     
-------------------------------|---------------------|
-------------------------------|---------------------|
-------------------------------|---------------------|
-------------------------------|---------------------|
--0--0--0--0--0--0--0--0-------|--4------5------1----|
--0--0--0--0--0--0--0--0-------|--4------5------1----|


  PM PM PM PM PM PM PM PM PM PM       PM PM    PM PM       
  E  E  S  S  E  S  S  E  E  E     E  E  E  E  E  E  Q     
--------------------------------|-------------------------|
--------------------------------|-------------------------|
--------------------------------|-------------------------|
--------------------------------|-------------------------|
--0--0--0--0--0--0--0--0--0--0--|--4--0--0--4--0--0--1----|
--0--0--0--0--0--0--0--0--0--0--|--4--0--0--4--0--0--1----|


  PM PM PM PM PM PM PM PM PM PM       PM PM    PM PM       
  E  E  S  S  E  S  S  E  E  E     E  E  E  E  E  E  Q     
--------------------------------|-------------------------|
--------------------------------|-------------------------|
--------------------------------|-------------------------|
--------------------------------|-------------------------|
--0--0--0--0--0--0--0--0--0--0--|--4--0--0--5--0--0--1----|
--0--0--0--0--0--0--0--0--0--0--|--4--0--0--5--0--0--1----|


  PM PM PM PM PM PM PM PM PM PM       PM PM    PM PM       
  E  E  S  S  E  S  S  E  E  E     E  E  E  E  E  E  Q     
--------------------------------|-------------------------|
--------------------------------|-------------------------|
--------------------------------|-------------------------|
--------------------------------|-------------------------|
--0--0--0--0--0--0--0--0--0--0--|--4--0--0--4--0--0--1----|
--0--0--0--0--0--0--0--0--0--0--|--4--0--0--4--0--0--1----|


  PM PM PM PM PM PM PM PM PM PM                             
  E  E  S  S  E  S  S  E  E  E     E  E  E  E  E  E  E  E   
--------------------------------|--------------------------|
--------------------------------|--------------------------|
--------------------------------|--------------------------|
--------------------------------|--------------------------|
--0--0--0--0--0--0--0--0--0--0--|--4--------5--------1-----|
--0--0--0--0--0--0--0--0--0--0--|--4--------5--------1-----|


  H        H           H        H           H        H         
--------------------|--------------------|--------------------|
--------------------|--------------------|--------------------|
--------------------|--------------------|--------------------|
--------------------|--------------------|--------------------|
--0--------L--------|--L--------L--------|--L--------L--------|
--0--------L--------|--L--------L--------|--L--------L--------|


  H        H          
--------------------||
--------------------||
--------------------||
--------------------||
--L--------L--------||
--L--------L--------||

END



Duration Legend
---------------
W - whole
H - half
Q - quarter
E - 8th
S - 16th
T - 32nd
X - 64th



Tablature Legend
----------------
L - tied note
h - hammer on
p - pull off
b - bend
S - shift slide
s - legato slide
/ -  slide into from below or out of upwards
\ -  slide into from above or out of downwards
~ - vibrato
W - wide vibrato
tr - trill
TP - tremolo picking
Tap to rate this tab
 
# A B C D E F G H I J K L M N O P Q R S T U V W X Y Z