Song name
# A B C D E F G H I J K L M N O P Q R S T U V W X Y Z

Postmortem Promises - Beast Of The Black Forest tab

Postmortem Promises
Beast of the Black Forest
Drop A (7-String)

Gtr 1                1,3                       2                       4
|-----------------------|-----------------------|-----------------------|
|-----------------------|-----------------------|-----------------------|
|-----------------------|-----------------------|-----------------------|
|-----------------------|-----------------------|-----------------------|
|-----------------------|-----------------------|-----------------------|
|3-3-3------------------|2-2-2------------------|8-8-8------------------|
|3-3-3------------------|2-2-2------------------|8-8-8------------------|
 . . .                   . . .                   . . .                  |
Gtr 2                1,3                       2                       4|
|-----------------------|-----------------------|-----------------------|
|-----------------------|-----------------------|-----------------------|
|-----------------------|-----------------------|-----------------------|
|-----------------------|-----------------------|-----------------------|
|-----------------------|-----------------------|-----------------------|
|-----------------------|-----------------------|-----------------------|
|3-3-3-6-3-3-5-3-3-3-3-3|2-2-2-5-2-2-3-2-2-2-2-2|8-5-5-6-5-5-5-5-5-6-6-6|
 . . .   . .   . .   . . . . .   . .   . .   . .   . .   . .   . . . . .


Gtr 1                1,3                       2                       4
|-----------------------|-----------------------|-----------------------|
|-----------------------|-----------------------|-----------------------|
|-----------------------|-----------------------|-----------------------|
|-----------------------|-----------------------|-----------------------|
|-----------------------|-----------------------|-----------------------|
|3-3-3------------------|2-2-2------------------|-----------------------|
|3-3-3------------------|2-2-2------------------|8-----6-----5-----6----|
 . . .                   . . .                   "     "     "     "    |
Gtr 2                1,3                       2                       4|
|-----------------------|-----------------------|-----------------------|
|-----------------------|-----------------------|-----------------------|
|-----------------------|-----------------------|-----------------------|
|-----------------------|-----------------------|-----------------------|
|-----------------------|-----------------------|-----------------------|
|-----------------------|-----------------------|-----------------------|
|3-3-3-6-3-3-5-3-3-3-3-3|2-2-2-5-2-2-3-2-2-2-2-2|8-----6-----5-----6----|
 . . .   . .   . .   . . . . .   . .   . .   . . "     "     "     "


Both Gtrs            1,3                       2                       4
|-----------------------|-----------------------|-----------------------|
|-----------------------|-----------------------|-----------------------|
|-----------------------|-----------------------|-----------------------| x2
|-----------------------|-----------------------|-----------------------|
|-----------------------|-----------------------|-----------------------|
|-----------------------|-----------------------|-----------------------|
|3-----6-----5-----3----|2-----5-----3-----2----|8-----6-----5-----6----|
 "     "     "     "     "     "     "     "     "     "     "     "


Both Gtrs            1,3                       2                       4
|-----------------------|-----------------------|-----------------------|
|-----------------------|-----------------------|-----------------------|
|-----------------------|-----------------------|-----------------------|
|-----------------------|-----------------------|-----------------------|
|-----------------------|-----------------------|-----------------------|
|3-----6-----5-----3----|2-----5-----3-----2----|8-----6-----5-----6----|
|3-----6-----5-----3----|2-----5-----3-----2----|8-----6-----5-----6----|
 .     .     .     .     .     .     .     .     .     .     .     .


Both Gtrs            1,3                       2                       4
|-----------------------|-----------------------|-----------------------|
|-----------------------|-----------------------|-----------------------|
|-----------------------|-----------------------|-----------------------|
|-----------------------|-----------------------|-----------------------|
|-----------------------|-----------------------|-----------------------|
|3-----6-----5-----3----|2-----5-----3-----2----|8-----6-----5-----6----|
|3-----6-----5-----3----|2-----5-----3-----2----|8-----6-----5-----6----|
 .     .     .     .     .     .     .     .     .     .     .


Gtr 1 (Ring Out)
|---------------------------------------------------------------|
|---------------------------------------------------------------|
|---------------------------------------------------------------|
|---------------------------------------------------------------|
|---------------------------------------------------------------|
|2--------------------------------------------------------------|
|2--------------------------------------------------------------|
                                                                |
Gtr 2                                                           |
|---------------------------------------------------------------|
|---------------------------------------------------------------|
|---------------------------------------------------------------|
|---------------------------------------------------------------|
|---------------------------------------------------------------|
|---------------------------------------------------------------|
|222-222-5p3-222-222-5p3-222-5p3-222-222-5p3-222-222-5p3-333-5p3|
 ... ...     ... ...     ...     ... ...     ... ...     ...


Gtr 1
|---------------------------------------------------------------|
|---------------------------------------------------------------|
|---------------------------------------------------------------|
|---------------------------------------------------------------|
|---------------------------------------------------------------|
|2--------------------------------------------------------------|
|2--------------------------------------------------------------|
 .                                                              |
Gtr 2                                                           |
|---------------------------------------------------------------|
|---------------------------------------------------------------|
|---------------------------------------------------------5#----|
|---------------------------------------------------------------|
|---------------------------------------------------------------|
|---------------------------------------------------------------|
|222-222-5p3-222-222-5p3-222-5p3-222-222-5p3-222-222-5p3--------|
 ... ...     ... ...     ...     ... ...     ... ...


Both Gtrs                  1,2,3                               4
|-------------------------------|-------------------------------|
|-------------------------------|-------------------------------|
|-------------------------------|-------------------------------|
|-------------------------------|-------------------------------|
|-------------------------------|-------------------------------|
|-------------------------------|------------------------5*-----|
|222-222-5p3-222-222-5p3-222-5p3|222-222-5p3-222-222-5p3--------|
 ... ...     ... ...     ...     ... ...     ... ...


Both Gtrs                  1,2,3                               4
|-------------------------------|-------------------------------|
|-------------------------------|-------------------------------|
|-------------------------------|-------------------------------|
|-------------------------------|-------------------------------|
|-------------------------------|-------------------------------|
|-------------------------------|------------------------2------|
|222-222-5p3-222-222-5p3-222-5p3|222-222-5p3-222-222-5p3-2------|
 ... ...     ... ...     ...     ... ...     ... ...     .


Both Gtrs                     1,2,3                           4
|----------------------------------|---------------------------|
|----------------------------------|---------------------------|
|----------------------------------|---------------------------|
|----------------------------------|------------------9-12-8-11|
|----------------------------------|---------------------------|
|2-2-2-2-2-2-2--2-2-2-2--2-2-2-2--2|2-2-2-2-2-2-2--2-----------|
|2-2-2-2-2-2-2--2-2-2-2--2-2-2-2--2|2-2-2-2-2-2-2--2-----------|
 . . . . . . .  . . . .  . . . .  . . . . . . . .  .


Gtr 1                         1,2,3                           4
|----------------------------------|---------------------------|
|----------------------------------|---------------------------|
|----------------------------------|---------------------------|
|----------------------------------|------------------9-12-8-11|
|----------------------------------|---------------------------|
|2-2-2-2-2-2-2--2-2-2-2--2-2-2-2--2|2-2-2-2-2-2-2--2-----------|
|2-2-2-2-2-2-2--2-2-2-2--2-2-2-2--2|2-2-2-2-2-2-2--2-----------|
 . . . . . . .  . . . .  . . . .  . . . . . . . .  .           |
Gtr 2                         1,2,3                           4|
|----------------------------------|---------------------------|
|----------------------------------|---------------------------|
|----------------------------------|------------------7-11-6--9|
|----------------------------------|---------------------------|
|----------------------------------|---------------------------|
|2-2-2-2-2-2-2--2-2-2-2--2-2-2-2--2|2-2-2-2-2-2-2--2-----------|
|2-2-2-2-2-2-2--2-2-2-2--2-2-2-2--2|2-2-2-2-2-2-2--2-----------|
 . . . . . . .  . . . .  . . . .  . . . . . . . .  .


Both Gtrs (Part One)
|-------------------------------------------------------------------|
|-------------------------------------------------------------------| Play
|-------------------------------------------------------------------| Entire
|-------------------------------------------------------------------| Riff
|---------9-------7---------------------------9-----7---------------| Twice
|10p7-7-7---7-7-7---7-7-7-10-7-7-10p7-9p6-6-6---6-6---6-6-10-6-6-9p6|
|-------------------------------------------------------------------|
      . .   . . .   . . .    . .          . .   . .   . .    . .

Both Gtrs (Part Two)
|----------------------------------------------------------------|
|----------------------------------------------------------------| Vibrato
|----------------------------------------------------------------| Last Note
|----------------------------------------------------------------| Second
|---------9-------7---------------------------9-------10--9--7--9| Time
|10p7-7-7---7-7-7---7-7-7-10-7-7-10p7-9p6-6-6---6-6-6------------| Through
|----------------------------------------------------------------|
      . .   . . .   . . .    . .          . .   . . .  "  "  "  "


Gtr 1
|----------------------------------|
|----------------------------------|
|----------------------------------|
|----------------------------------|
|----------------------------------|
|2-3-6-5-2-3-5-3-2-3-6-5-5----3----|
|2-3-6-5-2-3-5-3-2-3-6-5-----------|
 . . . . . . . . . . . . "    "    |
Gtr 2                              |
|----------------------------------|
|----------------------------------|
|----------------------------------|
|----------------------------------|
|----------------------------------|
|2-3-6-5-2-3-5-3-2-3-6-5-----------|
|2-3-6-5-2-3-5-3-2-3-6-5-----------|
 . . . . . . . . . . . .

Gtr 1
|----------------------------------|
|----------------------------------|
|----------------------------------|
|----------------------------------|
|----------------------------------|
|2-3-6-5-2-3-5-3-2-3-6-5-----------|
|2-3-6-5-2-3-5-3-2-3-6-5-----------|
 . . . . . . . . . . . .           |
Gtr 2                              |
|----------------------------------|
|----------------------------------|
|----------------------------------|
|----------------------------------|
|----------------------------------|
|2-3-6-5-2-3-5-3-2-3-6-5-5----3~---|
|2-3-6-5-2-3-5-3-2-3-6-5-----------|
 . . . . . . . . . . . . "    "


Both Gtrs
|----------------------------------|
|----------------------------------| x4
|----------------------------------|
|----------------------------------|
|----------------------------------|
|2-3-6-5-2-3-5-3-2-3-6-5-2---------|
|2-3-6-5-2-3-5-3-2-3-6-5-2---------|
 . . . . . . . . . . . . .


Both Gtrs
|-----|
|-----|
|-----|
|-----|
|-----|
|--2--|
|--2--|
   .

END
Tap to rate this tab
# A B C D E F G H I J K L M N O P Q R S T U V W X Y Z