Song name
# A B C D E F G H I J K L M N O P Q R S T U V W X Y Z

Pot - Love To See tab

P.O.T. - Love to See

-I didn't spend as much time into making this tab as compared to my past tabs, but this
one's still as accurate as my ears could transcribe. So even though it looks somewhat
bare and I didnt't write the transition of one part to another completely (since I lost
my mp3 and cd of this song, and I put this tab off for a long time) if you know the song,
its pretty easy to dissect this tab and organize it properly (since each section really
has completely different riffs). Well, here it is, enjoy!

Tuning: EADGBE

Intro:
======
e|--------------------------------------------------------------------|
B|----------------8-10-10b11r10-8-------------------------------------|
G|-9-7-------7--9------------------9--7--9-7-------7--9-7-------------|
D|-----9-7-9---------------------------------9-7-9--------9--7-------7|
A|--------------------------------------------------------------7-10~-|
E|--------------------------------------------------------------------|
-Twice.

Verse:
======
- I'm not going to get accurate here, kau nang bahala... d naman kau
titingin ng tab n2ng song kng d pa kau "sanay" maggitara dba?^^
e|-5--5--5-5-5--5--5-5-5--6--5----------------------------------------|
B|-5--5--5-5-5--5--5-5-5--5--5----------------------------------------|
G|-5--5--5-5-5--5--5-5-5--5--5----------------------------------------|
D|--------------------------------------------------------------------|
A|--------------------------------------------------------------------|
E|--------------------------------------------------------------------|
- Keep doing this throughout the verse, but before the pre-chorus, it goes:

e|-5--5--5-5-5-5---9/10~-9--------------------------------------------|
B|-5--5--5-5-5-5---9/10~-9--------------------------------------------|
G|-5--5--5-5-5-5---9/10~-9--------------------------------------------|
D|--------------------------------------------------------------------|
A|--------------------------------------------------------------------|
E|--------------------------------------------------------------------|

Pre-chorus:
===========
e|--------------------------------------------------------------------|
B|--------------------------------------------------------------------|
G|-----5-7-5-------5----7b8r7-5---------------------------------------|
D|-7-8--------7-8-----8-----------------------------------------------|
A|--------------------------------------------------------------------|
E|--------------------------------------------------------------------|
-Twice.

e|--------------------------------------------------------------------|
B|-------7--------------7b8r7-----------------------------------------|
G|-6-8-9---8--6-8--9--8-------8---------------------------------------|
D|--------------------------------------------------------------------|
A|--------------------------------------------------------------------|
E|--------------------------------------------------------------------|
-Twice.

e|-7~-xxxx-9/10-xx-9/10-----------------------------------------------|
B|-8~-xxxx-9/10-xx-9/10-----------------------------------------------|
G|-7~-xxxx-9/10-xx-9/10-----------------------------------------------|
D|-9~-----------------------------------------------------------------|
A|-7~-----------------------------------------------------------------|
E|--------------------------------------------------------------------|

Chorus:
=======
e|-7--7-7--7----x-x-7--7-7--5---6---7...-------------------------------|
B|-8--8-8----8~-x-x-8--8-8--6---7---8...-------------------------------|
G|-7--7-7-------x-x-7--7-7--5---6---7...-------------------------------|
D|---------------------------------------------------------------------|
A|---------------------------------------------------------------------|
E|---------------------------------------------------------------------|
- Keep repeating. Just figure out which part to repeat.


- That's pretty much all the info you needed to know to piece out the whole
song... just know the exact transition from one riff to another. Sorry for
not remembering, by the way.

Oh, and for the bridge (the somewhat silent part), I can't really write a tab
for it, since I can't put an inaccurate part in this tab (I really can't remember
it! D@mn it!)




- By the way, here's the outro, hehehe, you didn't think I'd forget it now,
did ya?

Outro:
======
e|---------------------------------------------------------------------|
B|---------------------------------------------------------------------|
G|----------------------0--2--2/4--0-----------------------------------|
D|-2-0-------0-----0-2-------------------------------------------------|
A|-----2-0-2-----2-----------------------------------------------------|
E|---------------------------------------------------------------------|

e|---------------------------------------------------------------------|
B|---------------------------------------------------------------------|
G|---------------------------------------------------------------------|
D|-2-0-------0-----2-0-------------------------------------------------|
A|-----2-0-2-----2-----2-0---------------------------------------------|
E|-------------------------3b4-2---------------------------------------|

e|---------------------------------------------------------------------|
B|---------------------------------------------------------------------|
G|----------------------0--2--2/4--0-----------------------------------|
D|-2-0-------0-----0-2-------------------------------------------------|
A|-----2-0-2-----2-----------------------------------------------------|
E|---------------------------------------------------------------------|

e|---------------------------------------------------------------------|
B|---------------------------------------------------------------------|
G|---------------------------------------------------------------------|
D|-2-0-------0-----2-0-----------2~------------------------------------|
A|-----2-0-2-----2-----2-0-------2~------------------------------------|
E|-------------------------3b4-2-0~------------------------------------|

That's it!

E-mail me at ifyhard2@yahoo.com for comments, suggestions, or whatever,
really! Ifyhard
Tap to rate this tab
 
# A B C D E F G H I J K L M N O P Q R S T U V W X Y Z