Song name
# A B C D E F G H I J K L M N O P Q R S T U V W X Y Z

Pothead - Letz Complete chords

Letz Complete Tab by Pothead, www.Ultimate-Guitar.Com
Tab by Guddack
INTRO:
e|------------------------|
B|------------------------|
G|------------------------|
D|------------------------|
A|--9--4--6----9--4--6----|
E|--7--2--4----7--2--4----|

8 times              4 times
e|------------------|-------------------------|
B|------------------|-------------------------|
G|------------------|-------------------------|
D|------------------|-------------------------|
A|------------------|-------------------------|
E|---4--4-----------|----4--3--2---2-2-2-2-3--|

8 times              8 times
e|------------------|-------------------------|
B|------------------|-------------------------|
G|------------------|-------------------------|
D|------------------|-------------------------|
A|------------------|-------------------------|
E|---4--4-----------|----4--3--2---2-2-2-2-3--|

Solo 1 (My Tabs are Backround)
4 times
e|----------------------------------|
B|----------------------------------|
G|----------------------------------|
D|----------------------------------|
A|----5---6---7--6-7-6--5-6-5--4----|
E|--4---4---4-----------------------|


8 times
e|-------------------------|
B|-------------------------|
G|-------------------------|
D|-------------------------|
A|-------------------------|
E|----4--3--2---2-2-2-2-3--|

Solo 2 (My Tabs are Backround)
4 times
e|------------------------------------|
B|------------------------------------|
G|------------------------------------|
D|------------------------------------|
A|----5---6---7--6-7-6--5-6-5--4------|
E|--4---4--4--------------------------|

Break

5 hits per Tab from 4 to 17
e|----------------------------------|
B|----------------------------------|
G|----------------------------------|
D|----------------------------------|
A|----------------------------------|
E|--44444-/-17-17-17-17-17----------|

YEAH

8 times
e|-------------------------|
B|-------------------------|
G|-------------------------|
D|-------------------------|
A|-------------------------|
E|----4--3--2---2-2-2-2-3--|
Tap to rate this tab
# A B C D E F G H I J K L M N O P Q R S T U V W X Y Z