Song name
# A B C D E F G H I J K L M N O P Q R S T U V W X Y Z

Powder - Adore Me tab

                 * * * * * * * * * * * * * * * * * * 
                 *                                 *
                 *     Powder - Adore me           *
                 *                                 *
                 * * * * * * * * * * * * * * * * * * 

drop-b on a bariton-guitar
but you can play it on a regular guitar in drop-d 
let's see how your singer is going do do her job ...


intro riff 
****************************************************************************
the first five eighth notes are always played the same way.
in bar 1 and 3 the next three eighths are C Gb G
in bar 2 the chords run in chromatic order F Gb G with a crotchet rest at
the end of the bar
in bar 4 phil-x goes directly from C to G again with a crotchet rest at the 
end of the bar.
bars 5 to 7 go the same way as 1 - 3
bar 8 the chords run downwards C Ab G to the 1st verse

btw: it's sounds better if you don't play the B and C as power chords but just
play octaves


Db-|-----------------|-----------------|-----------------|-----------------|
Ab-|-----------------|-----------------|-----------------|-----------------|
E--|-----4-----5-----|-----4-----------|-----4-----5-----|-----4-----5-----|
B--|-0-0-x-3---x-4-5-|-0-0-x-3---4-5---|-0-0-x-3---x-4-5-|-0-0-x-3---x-5---|
Gb-|-0-0-2-3---3-4-5-|-0-0-2-3---4-5---|-0-0-2-3---3-4-5-|-0-0-2-3---3-5---|
B--|-0-0---3-----4 5-|-0-0---3---4-5---|-0-0---3-----4-5-|-0-0---3-----5---|


Db-|-----------------|-----------------|-----------------|-----------------|
Ab-|-----------------|-----------------|-----------------|-----------------|
E--|-----4-----5-----|-----4-----------|-----4-----5-----|-----4-----5-----|
B--|-0-0-x-3---x-4-5-|-0-0-x-3---4-5---|-0-0-x-3---x-4-5-|-0-0-x-3---x-6-5-|
Gb-|-0-0-2-3---3-4-5-|-0-0-2-3---4-5---|-0-0-2-3---3-4-5-|-0-0-2-3---3-6-5-|
B--|-0-0---3-----4 5-|-0-0---3---4-5---|-0-0---3-----4-5-|-0-0---3-----6-5-|


Riff 1
Db-|-----------------|-----------------|-----------------|-----------------|
Ab-|-----------------|-----------------|-----------------|-----------------|
E--|-7-7-7-7-7-7-7-7-|-9-9-9-9-9-9-9-9-|-5-5-5-5-5-5-5-5-|-7-7-7-7-7-7-7-7-|
B--|-7-7-7-7-7-7-7-7-|-7-7-7-7-7-7-7-7-|-5-5-5-5-5-5-5-5-|-5-5-5-5-5-5-5-5-|
Gb-|-5-5-5-5-5-5-5-5-|-7-7-7-7-7-7-7-7-|-3-3-3-3-3-3-3-3-|-5-5-5-5-5-5-5-5-|
B--|-----------------|-7-7-7-7-7-7-7-7-|-----------------|-5-5-5-5-5-5-5-5-|

        She's not afraid     she can behave  .....



chorus
****************************************************************************

more or less the same as the regular riff, but phil-x plays some sus4's

Db-|-----------------|-----------------|-----------------|-----------------|
Ab-|-----8-8-8-7-7-7-|-----------------|-----6-6-6-5-5-5-|-----------------|
E--|-7-7-7-7-7-7-7-7-|-9-9-9-9-9-9-9-9-|-5-5-5-5-5-5-5-5-|-7-7-7-7-7-7-7-7-|
B--|-7-7-7-7-7-7-7-7-|-7-7-7-7-7-7-7-7-|-5-5-5-5-5-5-5-5-|-5-5-5-5-5-5-5-5-|
Gb-|-5-5-5-5-5-5-5-5-|-7-7-7-7-7-7-7-7-|-3-3-3-3-3-3-3-3-|-5-5-5-5-5-5-5-5-|
B--|-----------------|-7-7-7-7-7-7-7-7-|-----------------|-5-5-5-5-5-5-5-5-|

         O-o-oh       now you're such .....



brigde
****************************************************************************

Db-|-----------------|-----------------|
Ab-|-----------------|-----------------|
E--|-----------------|-----------------|
B--|-3-3-3-3-3-3-3-3-|-2-2-2-2-2-2-2-2-|  + inro riff
Gb-|-3-3-3-3-3-3-3-3-|-2-2-2-2-2-2-2-2-|
B--|-3-3-3-3-3-3-3-3-|-2-2-2-2-2-2-2-2-|


            O - o - oh         do you adore me .....



solo played 2 times
****************************************************************************
bass guitar playing the regular riff  | H | Gb | A | E |
Db-|-------------------|----------------|-----------------------|----------|
Ab-|-------------------|----------------|-8-8-10-10-12-12-10-10-|-15-15~---|
E--|-7-7-9-9-11-11-9-9~|-11-11-12-12-11-|-----------------------|----------|
B--|-------------------|----------------|-----------------------|----------|
Gb-|-------------------|----------------|-----------------------|----------|
B--|-------------------|----------------|-----------------------|----------|


feel free to correct my mistakes and post a better version of this
Tap to rate this tab
 
# A B C D E F G H I J K L M N O P Q R S T U V W X Y Z