Song name
# A B C D E F G H I J K L M N O P Q R S T U V W X Y Z

Powderfinger - Turtle Head tab

 
Powderfinger - Turtle Head
Album - Double Allergic

The tunning I've used for this one is 
(low to high) CCCGCD.  
 
INTRO: 
D-|-----------------------------------------|- 
C-|-------2h3p2p0---------2h3p2p0--7\5--5\4-|- 
G-|-0-----0--------{12}---0--------0----0---|- 
C-|-0-----0--------{12}---0--------0----0---|- 
C-|-0--------------{12}---------------------|- 
C-|-----------------------------------------|- 
 
D-|-----------------------|- 
C-|-----------------------|- 
G-|-----------------------|- 
C-|-----------------------|-(x 4) 
C-|-----------------------|- 
C-|-0--5-5-5--3--3h5--3h5-|- 
 
1ST VERSE: 
D-|---------------------|- 
C-|---------------------|- 
G-|-5-5-5-5-5-5-3h5---5-|- 
C-|-0-0-0-0-0-0-0---0-0-|-(x 8) 
C-|-0-0-0-0-0-0-0---0-0-|- 
C-|-------------------0-|- 
 
PRE CHORUS: 
D-|--------------------------------------------|- 
C-|--------------------------------------------|- 
G-|--------------------------------------------|- 
C-|-0-8-8-8-8--3-5-5-5-5--0-8-8-8-8--3-5-5-5-5-|- 
C-|-0-8-8-8-8--3-5-5-5-5--0-8-8-8-8--3-5-5-5-5-|- 
C-|-0-8-8-8-8--3-5-5-5-5--0-8-8-8-8--3-5-5-5-5-|- 
 
D-|--------------------------------------|- 
C-|--------------------------------------|- 
G-|--------------------------------------|- 
C-|-0-8-8-8-8--3-5-5-5-5--0-8-8-8-8--3-0-|- 
C-|-0-8-8-8-8--3-5-5-5-5--0-8-8-8-8--3-0-|- 
C-|-0-8-8-8-8--3-5-5-5-5--0-8-8-8-8--3-0-|- 
 
CHORUS: 
D-|------------------|- 
C-|------------------|- 
G-|------------------|- 
C-|-7-7--8--8-5--5-5-|-(x 4) 
C-|-0-0--0--0-0--0-0-|- 
C-|-0-0--0--0-0--0-0-|- 
 
BREAK: 
D-|-----------------------|- 
C-|-----------------------|- 
G-|-----------------------|- 
C-|-----------------------|-(x 2) 
C-|-----------------------|- 
C-|-0--5-5-5--3--3h5--3h5-|- 
 
2ND VERSE: 
D-|---------------------|- 
C-|---------------------|- 
G-|-5-5-5-5-5-5-3h5---5-|- 
C-|-0-0-0-0-0-0-0---0-0-|-(x 8) 
C-|-0-0-0-0-0-0-0---0-0-|- 
C-|-------------------0-|- 
 
PRE CHORUS: 
D-|--------------------------------------------|- 
C-|--------------------------------------------|- 
G-|--------------------------------------------|- 
C-|-0-8-8-8-8--3-5-5-5-5--0-8-8-8-8--3-5-5-5-5-|- 
C-|-0-8-8-8-8--3-5-5-5-5--0-8-8-8-8--3-5-5-5-5-|- 
C-|-0-8-8-8-8--3-5-5-5-5--0-8-8-8-8--3-5-5-5-5-|- 
 
D-|--------------------------------------|- 
C-|--------------------------------------|- 
G-|--------------------------------------|- 
C-|-0-8-8-8-8--3-5-5-5-5--0-8-8-8-8--3-0-|- 
C-|-0-8-8-8-8--3-5-5-5-5--0-8-8-8-8--3-0-|- 
C-|-0-8-8-8-8--3-5-5-5-5--0-8-8-8-8--3-0-|- 
 
CHORUS: 
D-|------------------|- 
C-|------------------|- 
G-|------------------|- 
C-|-7-7--8--8-5--5-5-|-(x 8) 
C-|-0-0--0--0-0--0-0-|- 
C-|-0-0--0--0-0--0-0-|- 
 
BRIDGE CHORDS: (played with the chorus riff) 
D-|------|- 
C-|------|- 
G-|------|- 
C-|-0--5-|-(x 8) 
C-|-0--5-|- 
C-|-0--5-|- 
 
OUTRO: 
D-|-----------------|- 
C-|-----------------|- 
G-|-3/5--5/7-5/7--5-|- 
C-|-0----0---0----0-|-(x 4) 
C-|-0----0---0----0-|- 
C-|-----------------|- 
 
D-|-----------------------------------|- 
C-|-2h3p2p0---------2h3p2p0--7\5--5\4-|- 
G-|-0--------{12}---0--------0----0---|- 
C-|-0--------{12}---0--------0----0---|- 
C-|----------{12}---------------------|- 
C-|-----------------------------------|- 
 


Tap to rate this tab
# A B C D E F G H I J K L M N O P Q R S T U V W X Y Z