Song name
# A B C D E F G H I J K L M N O P Q R S T U V W X Y Z

Powderfinger - Save Your Skin tab

 
Powderfinger - Save Your Skin
Album - Parables for Wooden Ears
 
  
Tunung: GGDGBE (low to high) 
 
VERSE RIFF: 
E-|----3------3------3--------3--|- 
B-|----3------3------3--------3--|- 
G-|----0------0------0--------0--|- 
D-|------------------------------|- 
G-|--0------3------2------3/5----|- 
G-|--0---------------------------|- 
 
SECOND GUITAR RIFF: 
E-|-3-----------3-|- 
B-|-3h5p3p0-----3-|- 
G-|----------0----|- 
D-|---------------|- 
G-|---------------|- 
G-|---------------|- 
 
CHORUS RIFF: 
E-|---0h1--------1------------------|- 
B-|--------------1------6--6p5----5-|- 
G-|-2--------0h2--------5--5------5-|- 
D-|--------3---------5--7--7p5-5--5-|- 
G-|------------------5---------5--5-|- 
G-|------------------5---------5----|- 
 
That's basically it, just play around with it and improv a little 
with the chorus riff. 
 
 
 

Tap to rate this tab
 
# A B C D E F G H I J K L M N O P Q R S T U V W X Y Z