Song name
# A B C D E F G H I J K L M N O P Q R S T U V W X Y Z

Powderfinger - Roll Right By You tab

-------------------------------------------------------------------------------
			     Roll right by you - Powderfinger
-------------------------------------------------------------------------------
Tabbed by:Stroem

Tuning:standard


The end is quite hard to hear so its probably wrong. Got suggestions?
Pm or comment.

e|---------------------------------------------------------------------------|
B|------11-13-(13)(11)---11-13---16-------18b-16h18p16----18b-18b-16h18p16---|
G|---12---------------12-----------17-17--------------17------------------17-|
D|---------------------------------------------------------------------------|
A|---------------------------------------------------------------------------|
E|---------------------------------------------------------------------------|


e|---------------------------------------------------------------------------|
B|--18b-18b-16h18p16--------------11--11--11--11--11--11--11-----------------|
G|------------------17----17-15\12--12--12--12--12--12--12-------------------|
D|---------------------------------------------------------------------------|
A|---------------------------------------------------------------------------|
E|---------------------------------------------------------------------------|
Tap to rate this tab
 
# A B C D E F G H I J K L M N O P Q R S T U V W X Y Z