Song name
# A B C D E F G H I J K L M N O P Q R S T U V W X Y Z

Powderfinger - On My Mind tab

This is the intro for On My Mind
INTRO:
E-|-----------------|
B-|-----------------|
G-|-----------------|
D-|-8--8--8--8--8\--|
A-|-8--8--8--8--8\--|
E-|-6--6--6--6--6\--|

1ST VERSE:
E-|-------------------------------------|
B-|-------------------------------------|
G-|-------------------------------------|
D-|-8--8--8--8--8-8--6--6--6--13-13-13--|(x 4)
A-|-8--8--8--8--8-8--6--6--6--13-13-13--|
E-|-6--6--6--6--6-6--4--4--4--11-11-11--|

PRE CHORUS
E-|------------------------------------------------------------------|
B-|------------------------------------------------------------------|
G-|------------------------------------------------------------------|
D-|-8-8-8-8-8-8--8-8-8--8--8-8--13-13-13-13-13-13--13-13-13-13-13-13-|
A-|-8-8-8-8-8-8--8-8-8--8--8-8--13-13-13-13-13-13--13-13-13-13-13-13-|
E-|-6-6-6-6-6-6--6-6-6--6--6-6--11-11-11-11-11-11--11-11-11-11-11-11-|

1ST CHORUS:
E-|-------------------------------------|
B-|-------------------------------------|
G-|-10---------8----------6-------------|
D-|-10---------8----------6---------3---|
A-|-8----------6----------4---------3---|
E-|---------------------------------1---|

LEAD BREAK & 2ND VERSE:
E-|-------------------------------------|
B-|-------------------------------------|
G-|-------------------------------------|
D-|-8--8--8--8--8-8--6--6--6--13-13-13--|(x 6)
A-|-8--8--8--8--8-8--6--6--6--13-13-13--|
E-|-6--6--6--6--6-6--4--4--4--11-11-11--|

Pre Chorus Again

Then 2nd Chorus:
E-|-----------------------------------------------|
B-|-----------------------------------------------|
G-|-10---------8----------6----------------8------|
D-|-10---------8----------6---------3------8------|
A-|-8----------6----------4---------3------6------|
E-|---------------------------------1-------------|

3RD VERSE:
E-|-----------------|
B-|-----------------|
G-|-----------------|
D-|-8--8--8--8--8\--|
A-|-8--8--8--8--8\--|
E-|-6--6--6--6--6\--|

THEN PLAY BELOW TILL END:
E-|-------------------------------------|
B-|-------------------------------------|
G-|-------------------------------------|
D-|-8--8--8--8--8-8--6--6--6--13-13-13--|
A-|-8--8--8--8--8-8--6--6--6--13-13-13--| 
E-|-6--6--6--6--6-6--4--4--4--11-11-11--| (end on A#5)

There pretty easy to play and sounds cool
Tap to rate this tab
# A B C D E F G H I J K L M N O P Q R S T U V W X Y Z