Song name
# A B C D E F G H I J K L M N O P Q R S T U V W X Y Z

Powderfinger - Aeroplane tab

Powderfinger - Aeroplane (intro)

-----------------------------------------------------------------
Tabbed by: Anthony
Email: Anthony.d.smith@fluor.com

I know that everyone says it but this is the first tab I've worked out and it sounds right so yeah, enjoy

Tuning: Standard

e|-7-0---0---7-0---0--5-0---0--3-2-------------------------------|
B|-----3---------3--------3--------------------------------------|
G|---------------------------------------------------------------|
D|---------------------------------------------------------------|
A|---------------------------------------------------------------|
E|---------------------------------------------------------------|

e|-7-0---0---7-0---0--5-0---0--3-2-3-----------------------------|
B|-----3---------3--------3--------------------------------------|
G|---------------------------------------------------------------|
D|---------------------------------------------------------------|
A|---------------------------------------------------------------|
E|---------------------------------------------------------------|
Tap to rate this tab
# A B C D E F G H I J K L M N O P Q R S T U V W X Y Z