Song name
# A B C D E F G H I J K L M N O P Q R S T U V W X Y Z

Powderfinger - Passenger tab

This is a corected version of the tab I sent earlier (don't include this sentence on the 
(also don't add the other tab I sent).

Passenger

| = End of section (Intro, Verse etc.)

Each Line goes for four bars unless otherwise stated

Also, look carefully at the length of each note to get it right.


Chords needed:

   G    D/F# Bm   Em   C    Am   F#   A    D    C#m

E--3---------2----0----0----0----2----0----2-------|
B--0----3----3----0----1----1----2----2----3----5--|
G--0----2----4----0----0----2----3----2----2----6--|
D--0----0----4----2----2----2----4----2----0----6--|
A--2----0----2----2----3----0----4----0---------4--|
E--3----2---------0--------------2-----------------|


Intro:

Guitar 1 (Darren):

   1 + 2 + 3 + 4 + 1 + 2 + 3 + 4 + 1 + 2 + 3 + 4 + 1 + 2 + 3 + 4 +

   G               D/F#    Bm      Em

   G               D/F#    Bm      Em                             |

Verse 1:

Guitar 1:

   1 + 2 + 3 + 4 + 1 + 2 + 3 + 4 + 1 + 2 + 3 + 4 + 1 + 2 + 3 + 4 +

   G               D/F#    Bm      Em

   G               D/F#    Bm      Em

   C               Em              Bm              Em

   Am                              | < Two bars

Pre-Chorus:


Guitar 1:

   1 + 2 + 3 + 4 + 1 + 2 + 3 + 4 + 1 + 2 + 3 + 4 + 1 + 2 + 3 + 4 +

E-------------------------------------------------------------------|
B------2-------2-------3-------3-------2-------2-------3-------3----|
G----3---3---3---3---4---4---4---4---3---3---3---3---4---4---4---4--|
D--4-------4-------5-------5-------4-------4-------5-------5--------|
A-------------------------------------------------------------------|
E-------------------------------------------------------------------|

E--2-2-2-2-2-2-2-2-2-2-2-2-2-2-2-2-| < Two bars
B--2-2-2-2-2-2-2-2-2-2-2-2-2-2-2-2-|
G--3-3-3-3-3-3-3-3-3-3-3-3-3-3-3-3-|
D--4-4-4-4-4-4-4-4-4-4-4-4-4-4-4-4-|
A--4-4-4-4-4-4-4-4-4-4-4-4-4-4-4-4-|
E--2-2-2-2-2-2-2-2-2-2-2-2-2-2-2-2-|


Guitar 2 (Ian):

   1 + 2 + 3 + 4 + 1 + 2 + 3 + 4 + 1 + 2 + 3 + 4 + 1 + 2 + 3 + 4 +

E-------------------------------------------------------------------|
B------2-------2-------3-------3-------2-------2-------3-------3----|
G----3---3---3---3---4---4---4---4---3---3---3---3---4---4---4---4--|
D--4-------4-------5-------5-------4-------4-------5-------5--------|
A-------------------------------------------------------------------|
E-------------------------------------------------------------------|

E----------------------------------| < Two bars
B------2-------2-------2-------2---|
G----3---3---3---3---3---3---3---3-|
D--4-------4-------4-------4-------|
A----------------------------------|
E----------------------------------|

Chorus 1:

Guitar 1:

   1 + 2 + 3 + 4 + 1 + 2 + 3 + 4 + 1 + 2 + 3 + 4 + 1 + 2 + 3 + 4 +

   Bm                      G       A

   Bm                      G       A

   Bm                      G       A

   Bm      C#m     D       A       D                               |

Guitar 2:

   1 + 2 + 3 + 4 + 1 + 2 + 3 + 4 + 1 + 2 + 3 + 4 + 1 + 2 + 3 + 4 +

   Bm                      G       A

   Bm                      G       A

   Bm                      G       A

   Bm      C#m     D       A       D                               |

Verse 2:

Guitar 1:

   1 + 2 + 3 + 4 + 1 + 2 + 3 + 4 + 1 + 2 + 3 + 4 + 1 + 2 + 3 + 4 +

   G               D/F#    Bm      Em

   G               D/F#    Bm      Em

   C               Em              Bm              Em

   Am                              | < Two bars


Guitar 2:

   1 + 2 + 3 + 4 + 1 + 2 + 3 + 4 + 1 + 2 + 3 + 4 + 1 + 2 + 3 + 4 +

E-------------------------------------------------------------------|
B----------3-2---0---------2-0---------0-----0-----0-----0----------|
G------------------2-------------0---0-----0-----0-----0------------|
D----------------------------------5-----5-----5-----5--------------|
A-------------------------------------------------------------------|
E-------------------------------------------------------------------|

E-------------------------------------------------------------------|
B----------3-2---0---------2-0---------0-----0-----0-------0--------|
G------------------2-------------0---0-----0-----0-----0------------|
D----------------------------------5-----5-----5-----5--------------|
A-------------------------------------------------------------------|
E-------------------------------------------------------------------|

E-------------------------------------------------------------------|
B-------------------------------------------------------------------|
G------0-------------------------------4----------------------------|
D----2-----------------2-------------4-----------------2------------|
A--3-----------------2-------------2-----------------2--------------|
E------------------0-------------------------------0----------------|

E--0-0-0-0-0-0-0-0-0-0-0-0-0-0-0-0-| < Two bars
B--1-1-1-1-1-1-1-1-1-1-1-1-1-1-1-1-|
G--2-2-2-2-2-2-2-2-2-2-2-2-2-2-2-2-|
D--2-2-2-2-2-2-2-2-2-2-2-2-2-2-2-2-|
A--0-0-0-0-0-0-0-0-0-0-0-0-0-0-0-0-|
E----------------------------------|

Pre-Chorus:


Guitar 1:

   1 + 2 + 3 + 4 + 1 + 2 + 3 + 4 + 1 + 2 + 3 + 4 + 1 + 2 + 3 + 4 +

E-------------------------------------------------------------------|
B------2-------2-------3-------3-------2-------2-------3-------3----|
G----3---3---3---3---4---4---4---4---3---3---3---3---4---4---4---4--|
D--4-------4-------5-------5-------4-------4-------5-------5--------|
A-------------------------------------------------------------------|
E-------------------------------------------------------------------|

E--2-2-2-2-2-2-2-2-2-2-2-2-2-2-2-2-| < Two bars
B--2-2-2-2-2-2-2-2-2-2-2-2-2-2-2-2-|
G--3-3-3-3-3-3-3-3-3-3-3-3-3-3-3-3-|
D--4-4-4-4-4-4-4-4-4-4-4-4-4-4-4-4-|
A--4-4-4-4-4-4-4-4-4-4-4-4-4-4-4-4-|
E--2-2-2-2-2-2-2-2-2-2-2-2-2-2-2-2-|


Guitar 2:

   1 + 2 + 3 + 4 + 1 + 2 + 3 + 4 + 1 + 2 + 3 + 4 + 1 + 2 + 3 + 4 +

E-------------------------------------------------------------------|
B------2-------2-------3-------3-------2-------2-------3-------3----|
G----3---3---3---3---4---4---4---4---3---3---3---3---4---4---4---4--|
D--4-------4-------5-------5-------4-------4-------5-------5--------|
A-------------------------------------------------------------------|
E-------------------------------------------------------------------|

E----------------------------------| < Two bars
B------2-------2-------2-------2---|
G----3---3---3---3---3---3---3---3-|
D--4-------4-------4-------4-------|
A----------------------------------|
E----------------------------------|

Chorus 2:

Guitar 1:

   1 + 2 + 3 + 4 + 1 + 2 + 3 + 4 + 1 + 2 + 3 + 4 + 1 + 2 + 3 + 4 +

   Bm                      G       A

   Bm                      G       A

   Bm                      G       A

   Bm      C#m     D       A       D               F#              |


Guitar 2:

   1 + 2 + 3 + 4 + 1 + 2 + 3 + 4 + 1 + 2 + 3 + 4 + 1 + 2 + 3 + 4 +

E----2-----0-----2-----0---2---0------------------------------------|
B--0-----0-----0-----0---0---0--------------------------------------|
G-------------------------------------------------------------------|
D-------------------------------------------------------------------|
A-------------------------------------------------------------------|
E-------------------------------------------------------------------|

E----2-----0-----2-----0---2---0------------------------------------|
B--0-----0-----0-----0---0---0--------------------------------------|
G-------------------------------------------------------------------|
D-------------------------------------------------------------------|
A-------------------------------------------------------------------|
E-------------------------------------------------------------------|

E----2-----0-----2-----0---2---0------------------------------------|
B--0-----0-----0-----0---0---0--------------------------------------|
G-------------------------------------------------------------------|
D-------------------------------------------------------------------|
A-------------------------------------------------------------------|
E-------------------------------------------------------------------|

E----2-----------2-----5----3-2-0-2---------------------------------|
B--0-----2-----------3----------------------------------------------|
G-------------------------------------------------------------------|
D-------------------------------------------------------------------|
A-------------------------------------------------------------------|
E-------------------------------------------------------------------|


Outro:

Guitar 1:

   1 + 2 + 3 + 4 + 1 + 2 + 3 + 4 + 1 + 2 + 3 + 4 + 1 + 2 + 3 + 4 +

   Bm      C#m     D               A

   Bm      C#m     D               A

   Bm      C#m     D               A
                                            Fade...
   Bm      C#m     D               A
                   Fade...                  Fade...             End
   Bm      C#m     D               A                               |


Guitar 2:

   1 + 2 + 3 + 4 + 1 + 2 + 3 + 4 + 1 + 2 + 3 + 4 + 1 + 2 + 3 + 4 +

E----2-----0-----2-----0---2---0------------------------------------|
B--0-----0-----0-----0---0---0--------------------------------------|
G-------------------------------------------------------------------|
D-------------------------------------------------------------------|
A-------------------------------------------------------------------|
E-------------------------------------------------------------------|

E----2-----0-----2-----0---2---0------------------------------------|
B--0-----0-----0-----0---0---0--------------------------------------|
G-------------------------------------------------------------------|
D-------------------------------------------------------------------|
A-------------------------------------------------------------------|
E-------------------------------------------------------------------|

E----2-----0-----2-----0---2---0------------------------------------|
B--0-----0-----0-----0---0---0--------------------------------------|
G-------------------------------------------------------------------|
D-------------------------------------------------------------------|
A-------------------------------------------------------------------|
E-------------------------------------------------------------------|
                                            Fade...
E----2-----------2-----5----3-2-0-2---------------------------------|
B--0-----2-----------3----------------------------------------------|
G-------------------------------------------------------------------|
D-------------------------------------------------------------------|
A-------------------------------------------------------------------|
E-------------------------------------------------------------------|
                   Fade...                  Fade...              End
E----2-----0-----2-----0---2---0------------------------------------|
B--0-----0-----0-----0---0---0--------------------------------------|
G-------------------------------------------------------------------|
D-------------------------------------------------------------------|
A-------------------------------------------------------------------|
E-------------------------------------------------------------------|

That's it!

And here's where the lyrics go with the song:


Intro:

 G    D/F#    Bm    Em

 G    D/F#    Bm    Em


Verse:

G
Caged

D/F#         Bm               Em
 You hold so tight until your knuckles show

  G
Escape

D/F#     Bm               Em
 As far away as you could ever know

                   C
You sink them all down

                     Em
And watch them float up

          Bm                    Em
Until the wheel has spun around

             Am
You will be bound by what you are


Pre-Chorus:


You stand in the corner


With your face stripped of colour


For what?


Chorus:

Bm                  G      A
If you want to be a passenger

Bm                         G        A
Climb aboard with me we're leaving now

Bm                    G       A
Step outside and see another world

     Bm      C#m      D  A      D
Only if you want to be a passenger


Verse:

G
Chained

D/F#     Bm              Em
 So many places you'd prefer to be

       G
Than framed

D/F#  Bm               Em
 By a picket fence and salary

                  C
You sink them all down

                     Em
Then watch them float up

          Bm                    Em
Until the wheel has spun around

             Am
You will be bound by who you are


Pre-Chorus:


You're tied to the corner


With your hope twisted under


In knots


Chorus:

Bm                  G      A
If you want to be a passenger

Bm                         G        A
Climb aboard with me we're leaving now

Bm                    G       A
Step outside and see another world

     Bm      C#m      D  A      D     F#
Only if you want to be a passenger    Ohhhh


Outro:

Bm C#m D A
           lalalalalalala  lalalalalalala

Bm C#m D A
           lalalalalalala  lalalalalalala

Bm C#m D A
           lalalalalalala  lalalalalalala

Bm      C#m       D  A
If you want to be    lalalalalalala  lalalalalalala

Bm      C#m       D  A
If you want to be    lalalalalalala  lalalalalalala
Tap to rate this tab
# A B C D E F G H I J K L M N O P Q R S T U V W X Y Z