Song name
# A B C D E F G H I J K L M N O P Q R S T U V W X Y Z

Powderfinger - Jewel tab

-------------------------------------------------------------------------------
			     Powderfinger - JEWEL
-------------------------------------------------------------------------------
Tabbed by: Stroem


Tuning:Standard

LOOK OUT!!

Intro: 
e|---------------------------------------------------------------------------------------|
B|---------------------------------------------------------------------------------------|
G|---------------------------------------------------------------------------------------|
D|---------5--7-7--5--7---5--------------------------------------------------------------|
A|---5--7--------------------7--5--3-3--0--3---0--3--0--3-3--0--3---0--3--0--3-----------|
E|------------------------------------------------------------------------------5--3--5--|


Verse: They play E throughout the verse, 
e|---------------------------------------------------------------------------|
B|---------------------------------------------------------------------------|
G|-------9-------------------------------------------------------------------|
D|-------9-------------------------------------------------------------------|
A|------/7-------------------------------------------------------------------|
E|---------------------------------------------------------------------------|
" Please don't wake me up before tomorrow..."



Chorus: 

         D                      C#
Oh yeah, Ill make it up to you now
            D                       C#
Ill be the jewel missing from your crown
           D                      C#         B
Oh yeah  , Ill make it up to you now if you let me in


Bridge: @ 1:34

Am x4 - F x4 - Am x 2 - F x1 - G x1  

Then @ 1:56
e|--------------------------------------------------|
B|--------------------------------------------------|
G|--------------------------------------------------|
D|----------------------------------5555-7777-------|
A|-------------------5555-7777-8888-----------------|
E|----5555-7777-8888--------------------------------|

Outro: x6 

e|---------------------------------------------------------------------------------------|
B|---------------------------------------------------------------------------------------|
G|---------------------------------------------------------------------------------------|
D|---------5--7-7--5--7---5--------------------------------------------------------------|
A|---5--7--------------------7--5--3-3--0--3---0--3--0--3-3--0--3---0--3--0--3-----------|
E|------------------------------------------------------------------------------5--3--5--|

Then end with this:
e|--------------------------------------------------|
B|--------------------------------------------------|
G|--------------------------------------------------|
D|--------------------------------------------------|
A|-----0--3--0--3-3--0--3--0--3--0--3---------------|
E|-------------------------------------5--3--5~-----|
Tap to rate this tab
# A B C D E F G H I J K L M N O P Q R S T U V W X Y Z