Song name
# A B C D E F G H I J K L M N O P Q R S T U V W X Y Z

Powderfinger - Thrillology tab

This Is My First Tab So May As Well Tab One Of My Favourite Bands.

Intro

E-7-0---0---7-0---0---5-0---0---5-0---33-2--|
B-----3---------3---------3---------3-------|
G-------------------------------------------|
D-------------------------------------------|
A-------------------------------------------|
E-------------------------------------------|

E-7-0---0---7-0---0---5-0---0---5-0---33-2-3--|
B-----3---------3---------3---------3---------|
G---------------------------------------------|
D---------------------------------------------|
A---------------------------------------------|
E---------------------------------------------|
Tap to rate this tab
# A B C D E F G H I J K L M N O P Q R S T U V W X Y Z